Guitar Tabs, Chords and Lyrics
Login is temporarily disabled for some users. Do not panic. Will be back in an hour or two. DO NOT REREGISTER!!


Solitary Man  Rage

Song: Solitary man
Band: Rage
Album: Trapped
Tabbed by: Chandler
E-mail: chandler_rb@yahoo.gr
Half Step Down Tuning - Eb Ab Db Gb Bb eb
m: mute
*: let ring
/,\: slide
h: hammer on
p: pull off
H: harmonic
Intro:
 
 --------
 eb|-----------------------------------------------|
 Bb|-----------------------------------------------|
 Gb|-9--9--9--9--------------9--9--9---------------|
 Db|-9--9--9--9--------------9--9--9--10-10-10--9--|
 Ab|-7--7--7--7--------------7--7--7--10-10-10--9--|
 Eb|-------------7-8-10-8-7-----------8--8--8---7--|

[m] [m] [m] [m] [m] [m] [m] 
Verse:
 
 --------

(You can also slide in the mute part)
 
 eb|---------------------------------------------------|
 Bb|---------------------------------------------------|
 Gb|-9--9--9--9---------------4--4--4--4---------------|
 Db|-9--9--9--9---------------4--4--4--4---------------|
 Ab|-7--7--7--7--7-6-5-4-3-2--2--2--2--2--2-3-4-5-6-7--|
 Eb|---------------------------------------------------|

[m] [m] [m] [m] [m] [m] [m] [m] [m] [m] [m] [m] 
Pre-chorus:
 
 -------------

(I can't count the number of mutes here !!! but you can figure it out easy)
"Hey... don't look for me no more... cause I won't be comming home!"
 
 eb|------------------------------------------------------------------------|
 Bb|------------------------------------------------------------------------|
 Gb|------------------------------------------------------------------------|
 Db|-9---------------12--12--10--9--10\7-----------------4------------------|
 Ab|-9---------------12--12--10--9--10\7-----------------4------------------|
 Eb|-7---------------10--10--8---7--8 \5-5-5-5-5-5-5-5-5-2-2-2-2-2-2-2-2-2--|

* m m m m m m m m m m m m m m m m
Pre-chorus 2:
 
 ---------------
 eb|------------------------|
 Bb|------------------------|
 Gb|------------------------|
 Db|------------------------|
 Ab|------------------------|
 Eb|-2p0-3p0-4p0-5p0-6p0-7--|

Chorus:
 
 ---------
 eb|-----------------------------------------|
 Bb|-----------------------------------------|
 Gb|-----------------7-----------------------|
 Db|-2-------5-------7-------7---------------|
 Ab|-2-------5-------5-------7---------------|
 Eb|-0-------3---------------5--5-5-5-5-3-0--|

* * * m m m m m m
Solo:
 
 -------

I'm really sorry that I don't know the rhythm but if you're good
you can jam!!!!!
RHYTHM GUITAR
 
 eb|-------------------------------------------------|
 Bb|-------------------------------------------------|
 Gb|-------------------------------------7-5---------|
 Db|-------8-8-------8-8-------8-8-----7-----5-------|
 Ab|-------8-8-------8-8-------8-8---7---------5-----|
 Eb|-0-0-0-6-6-0-0-0-6-6-0-0-0-6-6---------------5---|

[m] [m] [m] [m] [m] [m] [m] [m] [m] [B] [B] [B] [B] [B] [B] [B] 
You are playing the above part 6 times
then (when the lead starts) you play only mutes in E
then one time the above
again mutes
and again one time the above
and after ALL these you play
 
 eb|-------------------------|
 Bb|-------------------------|
 Gb|-------------------------|
 Db|-9-------12--12--10---7--|
 Ab|-9-------12--12--10---7--|
 Eb|-7-------10--10--8----5--|

* *
Outro
 
 -------
 eb|-------------------------------------------------|
 Bb|-------------------------------------------------|
 Gb|-------------------------------------7-5---------|
 Db|-------8-8-------8-8-------8-8-----7-----5-------|
 Ab|-------8-8-------8-8-------8-8---7---------5-----|
 Eb|-0-0-0-6-6-0-0-0-6-6-0-0-0-6-6---------------5---|

[m] [m] [m] [m] [m] [m] [m] [m] [m] [B] [B] [B] [B] [B] [B] [B] 
So, thats all the parts...
Let's build this song...!
Song order
 
 ------------

Intro
Verse
Pre-Chorus
Pre-Chorus 2
Chorus
Intro
Verse
Pre-Chorus
Pre-Chorus 2
Chorus
Pre-Chorus 2
Solo
Pre-Chorus 2
Verse
Intro
Chorus
Outro
THE END
any comments? mail me!
CHANDLER RB
\_\_\_\_\_\_ \_\_\_\_\_ \_\_\_\_\_
\_ \_ \_ \_ \_
\_ \_ \_ \_ \_
\_ \_\_\_\_\_\_ \_\_\_\_\_\_
\_ \_ \_ \_ \_
\_ \_ \_ \_ \_
\_ \_ \_ \_ \_
\_\_\_\_\_\_ \_ \_ \_\_\_\_\_\_

Important: The song above is NOT stored on the Chordie server. The original song is hosted at www.xguitar.com. Chordie works as a search engine and provides on-the-fly formatting. Chordie does not index songs against artists'/composers' will. To remove this song please click here.

Text color:
Chord color:
Chord grids: 
Font size:    
Page size: 

B
Rate #1 of 2 versions

Jango Player

Login - add to songbook

SHARE PAGE  



You need to log in to post comments