Guitar Tabs, Chords and Lyrics
Server problems seems to be fixed. Chordie has been experiencing problems with songs disappearing. These issues now seems to be fixed, but still verifying the fix. If you find anything strange, please email admin@chordie.com.


Days of December  Rage

Band : RAGE
Song : Days Of December
>From "XIII"
Written by Peter "Peavy" Wagner
Transcribed by Julien PUTIGNY (jputigny@club-internet.fr)
Tune up half step (F,A#,D#,G#,C,F)
Intro :
1st part :
Gtr 1 : Acoustic
 
 |----------------------------------|
 |---2--------2-------2------2------|
 |-----4--------4-------4------4----|
 |----------------4--------------4--|
 |-2----------------0---------------|
 |--------3---------------0---------|

Gtr 2 :
[B5] [G5] [A5] [E5]  
 
 |----------------------------------|
 |----------------------------------|
 |----------------------------------|
 |-4-4-4------------2-2-2-----------|
 |-2-2-2--5-5-5-5-5-0-0-0-2-2-2-2-2-|
 |--------3-3-3-3-3-------0-0-0-0-0-|

pm..............................
2nd part
Gtr 2&3 :
ph
 
 |-----------------------------|
 |------------0-7~-6~-5~-------|
 |-----------------------------|
 |-4---------------------6-6-6-|
 |-2--2-2-2-2------------5-5-5-|
 |-----------------------------|

Play 4 times then :
[B5] [C#5] [D5]  
 
 |-----------------------------|
 |-----------------------------|
 |-----------------------------|
 |-4--------6--------7---------|
 |-2--------4--------5---------|
 |-----------------------------|

Verse
Gtr 2 :
[E5] [A5] [G5] [A5]  
 
 |-----------------------------------------------------------------|
 |-----------------------------------------------------------------|
 |-----------------------------------------------------------------|
 |-----------------2-2-2-2-2-2-2-2-----------------2-2-2-2-2-2-2-2-|
 |-2-2-2-2-2-2-2-2-0-0-0-0-0-0-0-0-5-5-5-5-5-5-5-5-0-0-0-0-0-0-0-0-|
 |-0-0-0-0-0-0-0-0-----------------3-3-3-3-3-3-3-3-----------------|

pm.............................................................
Gtr 3 : 7x
 
 |-------------------------------------------------------------|-------------|
 |-------0---------------0---------------0--------------0------|-------------|
 |-----2---------------2---------------2---------------2-------|-------------|
 |---2---------------2---------------2---------------2---------|-9--9/10\9\7-|
 |-----------------0-------------------------------0-----------|-------------|
 |-0-------------------------------3---------------------------|-7--7/8-\7\5-|

pm.
Prechorus :
White and wonderful the snow covers my hair
[B] [E] [D]  
 
 |-2-----------------------7--------------5-------|
 |-2-----------------------7--------------5-------|
 |-4-----------------------9--------------7-------|
 |-4-----------------------9--------------7-------|
 |-2-----------------------7--------------5-------|
 |-2-----------------------7--------------5-------|

I reach out but you're not there
[B] [E] [E5]  
 
 |-2-----------------------7----------------------|
 |-2-----------------------7----------------------|
 |-4-----------------------9--9-9-9-9-9-9-9-9-9-9-|
 |-4-----------------------9--9-9-9-9-9-9-9-9-9-9-|
 |-2-----------------------7--7-7-7-7-7-7-7-7-7-7-|
 |-2-----------------------7----------------------|

Chorus :
In the days of december ...
[B5] [G5] [A5] [E5]  
 
 |---------------------------|
 |---------------------------|
 |---------------------------|
 |-------4---------2---------|
 |-------2----5----0--2------|
 |------------3-------0------|

then :
[B5] [C#5] [D5]  
 
 |---------------------------|
 |---------------------------|
 |---------------------------|
 |-4--------6--------7-------|
 |-2--------4--------5-------|
 |---------------------------|

Solo :
 
 |----------------------------------------------------------|
 |-0------2--4--5~--4--4~------5~------5/7\5\4--5--4--2---0-|
 |----------------------------------------------------------|
 |----------------------------------------------------------|
 |----------------------------------------------------------|
 |----------------------------------------------------------|

then :
Gtr 2 :
h ph h
 
 |------------------------------------------------------|
 |-------0-2-2-3-2-0-2~---------0-2~-/8-7-5-3-3-5-3-2-0-|
 |-----2----------------------2-------------------------|
 |---2----------------------2---------------------------|
 |-0----------------------0-----------------------------|
 |------------------------------------------------------|

pm. pm.
then Gtr 2 plays the same one more time and Gtr 3 plays :
h ph h
 
 |-------0-2-2-3-2-0-2~---------0-2~-/8-7-5-3-3-5-3-2-0-|
 |-----0----------------------0-------------------------|
 |---2----------------------2---------------------------|
 |-2----------------------2-----------------------------|
 |------------------------------------------------------|
 |------------------------------------------------------|

then play the 2nd part of Intro and then the Chorus
Tablature Explanation :
pc : Pick Harmonic
h : Hammer
pm.... : Palm Mute
/ or \ : Slide

Important: The song above is NOT stored on the Chordie server. The original song is hosted at www.xguitar.com. Chordie works as a search engine and provides on-the-fly formatting. Chordie does not index songs against artists'/composers' will. To remove this song please click here.

Text color:
Chord color:
Chord grids: 
Font size:    
Page size: 

A5 B B5 C#5 D D5 E E5 G5
Rate #1 of 4 versions

Login - add to songbook

SHARE PAGE  



You need to log in to post comments