Guitar Tabs, Chords and Lyrics
Major upgrade!! After one year development the new version of Chordie is now online! Please give feedback.


Vietnow   Rage Against the Machine

 
 |-------------------------|
 |-------------------------|
 |*-----------------------*|
 |*-----------------------*|
 |--4-4/-7-7---4-4/-7-7----|
 |--2-2/-5-5---2-2/-5-5----|

 


 [d] [d] [d] [u] [d] [d] [d] [u]  


 

 
 |-----------------------------------------|
 |-----------------------------------------|
 |*---------------------------------------*|
 |*---------------------------------------*|
 |--4-4-4-4-4-4-4-4-4/--7-7----4-4/-7-7----|
 |--2-2-2-2-2-2-2-2-2/--5-5----2-2/-5-5----|

 


 [d] [u] [d] [u] [d] [u] [d] [u] [d] [d] [u] [d] [d] [d] [u] 


 


 

 
 |-------------------|
 |-------------------|
 |*-----------------*|
 |*-----------------*|
 |--4-4-4-4-4-4-4-4--|
 |--2-2-2-2-2-2-2-2--|

 


 [d] [u] [d] [u] [d] [u] [d] [u]  


 

 
 |--------------------------------------------------|
 |--------------------------------------------------|
 |*------------------------------------------------*|
 |*------------------------------------------------*|
 |--------------------------------------------------|
 |--2-0-2-0-5b---0-2-0-2-0-5b---0-2-0-2-0-5-2-0-1---|
 |-----------------------------|
 |---8-7-8-7-8-7-8-7-8-7-------|
 |*---------------------------*|
 |*---------------------------*|
 |-----------------------------|
 |-----------------------------|

 


 repeat above before solo,it repeats for a while


 


 

 
 |-----------------------------------|
 |-----------------------------------|
 |*---------------------------------*|
 |*---------------------------------*|
 |--2/9/2--2/9/2--2/9/2--2/9-8-9-----|
 |-----------------------------------|

 


 w/wah repeats several x


 


 

 
 |------------------|
 |------------------|
 |*----------------*|
 |*----------------*|
 |--4-4/-7-7---3----|
 |--2-2/-5-5--------|

 


 rep[d]ea[d]ts [d]al[u]ot of times with dif. strumming


 


 

 
 |------------------------|
 |------------------------|
 |*----------------------*|
 |*----------------------*|
 |------------4-4/-7-5----|
 |--2-0-2-0---2-2/-5-5----|
 |---------------|
 |---------------|
 |*-------------*|
 |*---14/-15----*|
 |----xx/-xx-----|
 |----12/-13-----|


Important: The song above is NOT stored on the Chordie server. The original song is hosted at www.xguitar.com. Chordie works as a search engine and provides on-the-fly formatting. Chordie does not index songs against artists'/composers' will. To remove this song please click here.

This song is displayed as text-only. Transposing and tuning is only available for chordpro-songs.
Rate #3 of 4 versions

Jango Player

Login - add to songbook

SHARE PAGE  



You need to log in to post comments