Guitar Tabs, Chords and Lyrics
Major upgrade!! After one year development the new version of Chordie is now online! Please give feedback.


Daly City Train  Rancid

[F] [G] [C] [D]  
 
 e---X----X----X----X----
 B---X----X----X----X----
 G---X----X----5----7----
 D---3----5----5----7----
 A---3----5----3----5----
 E---1----3----X----X----

[G]He was an artist and a [F]writer and a [C]poet and a [G]friend
[G]In a man's life he will [F]take a fall
But how [C]low he goes well that just [G]depends
[G]He's shooting dope in the [F]men's room
At the [C]station Daly City [G]train
[G]Have you ever seen an angel well I [F]know I have
You see they'll [C]stay for a while [G]and they fly away
[C]Jackyl had a beer in his hand last time I [G]seen him
[C]When he rolled the dice you know he never thought twice
[G]Never thought twice about being here
[C]Jackyl had a beer in his hand last time I [G]seen him
[C]When he rolled the dice you know he never thought twice
[G]Never thought twice about being here
[G]Some grow up and [F]some grow old
But [C]what about the kid who never [G]learned the rules
[G]Spent all these years [F]on this earth
When you [C]look back it's just a f[G]licker of time
[G]Jackyl was one of the ones who [F]perished
He was [C]one of the ones who was already [G]saved
[G]Through all this evil and [F]wreckage
[C]He maintained a sense of him[G]self
[C]Jackyl had a beer in his hand last time I [G]seen him
[C]When he rolled the dice you know he never thought twice
[G]Never thought twice about being here
[C]Jackyl had a beer in his hand last time I [G]seen him
[C]When he rolled the dice you know he never thought twice
[G]Never thought twice about being here
Solo:
 
 e--------------------------------------
 B--------------------------------------
 G-0-7-7-5-2-2-5-2-0-0-7-7-5-2-2-5-2-0--
 D--------------------------------------
 A--------------------------------------
 E--------------------------------------

[G]Some men are in prison though they [F]walk the streets at night
Other [C]men who got the lockdown are [G]free as a bird in flight...
[C] [F] [G] [F] [F] [G] [F] [C]  
[C]Jackyl had a beer in his hand last time I [G]seen him
[C]When he rolled the dice you know he never thought twice
[G]Never thought twice about being here
[C]Jackyl had a beer in his hand last time I [G]seen him
[C]When he rolled the dice you know he never thought twice
[G]Never thought twice about being here
[C] [F] [G] [F] [F] [G] [F] [C]  
Verse: (repeated)
[G] [F] [C] [G]  
 
 E---3---1---3---3---
 B---3---1---5---3---
 G---4---2---5---4---
 D---5---3---5---5---
 A-------------------
 E-------------------

Chorus: One guitar plays the chords, barred, and the lead guitar plays
the riff. I believe the timing's right: C F G
 
 E-----------------------------------
 B-----------------1-3b-3b-3s1-------
 G---0---0---0---3-------------3-0---
 D-----------------------------------
 A-----------------------------------
 E-----------------------------------

Solo: (2x)
 
 E------------------------------------
 B-----3--3-3-3-3-2------1------------
 G-------------------2-2---2-2-2-2-0--
 D--0---------------------------------
 A------------------------------------
 E------------------------------------

Bridge: C F G C F G
 
 E---3---1---3-----3---1---3--------------------------
 B---5---1---3-----5---1---3--------------------------
 G---5---2---4-----5---2---4---5----------------------
 D---5---3---5-----5---3---5---5--3--5---3-3---5--3---
 A-----------------------------3--3--5---3-3---5--3---
 E--------------------------------1--3---1-1---3--1---

[C] [F] [G] [F] [F] [G] [F] 

Important: The song above is NOT stored on the Chordie server. The original song is hosted at www.xguitar.com. Chordie works as a search engine and provides on-the-fly formatting. Chordie does not index songs against artists'/composers' will. To remove this song please click here.

Text color:
Chord color:
Chord grids: 
Font size:    
Page size: 

C D F G
Rate #1 of 14 versions

Login - add to songbook

SHARE PAGE  




You need to log in to post comments