Guitar Tabs, Chords and Lyrics
Major upgrade!! After one year development the new version of Chordie is now online! Please give feedback.


Name  Rancid

[E] [F#] [A] [D]  
 
 e----------
 B----------
 G------2-7-
 D-2-4--2-7-
 A-2-4--0-5-
 E-0-2------

TIM SHOUTING:
You Don't know my name,
Man you don't down my naaaame...
REEF:
 
 e-2--2-2-2-2-2-2-2--2-2-2-2-2-2-2--2-2-2-2-2-2--2---2---2---2---
 B-2--2-2-2-2-2-2-0--0-0-0-0-0-0-2--2-2-2-2-2-2----4---4---4---4-
 G---------------------------------------------------------------
 D--------------------------------------------------------------- x4
 A---------------------------------------------------------------
 E---------------------------------------------------------------

NOTE: Do the reef above 2 times slow, then another two times
a little bit faster.
CHORUS:
[E]You Don't [F#]know my name, x2
[A]Man you don't down my [E]naaaame
VERSE:
[E]Paint a number [F#]on my [A]head
[E]work me [F#]till I'm [A]dead
[E]I can't believe [F#]I've [A]wasted
[E]all of the years [F#]I've [A]tasted
BRIDGE:
A million days and nights
All this pain and struggle
All for what I ask
[E]all the hate and trouble
CHORUS:
[E]You Don't [F#]know my name,
[A]Man you don't down my [E]naaaame
VERSE:
[E]Punch drunk [F#]from the [A]punch clock
[E]Opportunity [F#]never gonna [A]knock
[E]No more [F#]of this blue [A]collar
[E]All the union's [F#]getting [A]smaller
BRIDGE:
A million days and nights
All this pain and struggle
All for what I ask
[E]all the hate and trouble
CHORUS:
[E]You Don't [F#]know my name,
[A]Man you don't down my [E]naaaame
FINAL CHORUS:
[E]You Don't [F#]know my name,
[A]Man you don't down my [E]naaaame
[E]You Don't [F#]know my name,
A E E-XXX
Man you don't down my naaaame
STRUCTURE:
TIM SHOUTING
REEF
CHORUS
VERSE
BRIDGE
CHORUS
VERSE
BRIDGE
CHORUS
FINAL CHORUS.
the end.

Important: The song above is NOT stored on the Chordie server. The original song is hosted at www.xguitar.com. Chordie works as a search engine and provides on-the-fly formatting. Chordie does not index songs against artists'/composers' will. To remove this song please click here.

Text color:
Chord color:
Chord grids: 
Font size:    
Page size: 

A D E F#
Rate #2 of 6 versions

Jango Player

Login - add to songbook

SHARE PAGE  



You need to log in to post comments