Guitar Tabs, Chords and Lyrics
Server problems seems to be fixed. Chordie has been experiencing problems with songs disappearing. These issues now seems to be fixed, but still verifying the fix. If you find anything strange, please email admin@chordie.com.


Yertle the Turtle  Red Hot Chili Peppers

Author/Artist: Red Hot Chili Peppers
Title: Yertle The Turtle
Album: Freaky Styley
Transcribed by: Greenie 12
Main Riff: With Wah-Wah
 
 -||---------------------------------------------------------------------|-
 -||-----------------------------------x-x--11\--------------------------|-
 -||-*--10--10--10-10------------------x-x-------------------------------|-
 -||-*-----------------x-x--8--x--10-------------------------------------|-
 -||---------------------------------------------------------------------|-
 -||---------------------------------------------------------------------|-
 -|---------------------------------------------------------------------||-
 -|-----------------------------------x-x--13\--------------------------||-
 -|----10--10--10-10------------------x-x-----------------------------*-||-
 -|-------------------x-x--8--x--10-----------------------------------*-||-
 -|---------------------------------------------------------------------||-
 -|---------------------------------------------------------------------||-

Chorus: With-Wah
[G5] [Bb5] [C5] [Bb5] [G5] [Bb5]  
 
 -||-----------------------------------------------------||-
 -||-----------------------------------------------------||-
 -||-*-------------------------------------------------*-||-
 -||-*--5----5---x-x--8----10----8-------5--5----5--8--*-||-
 -||----5----5---x-x--8----10----8-------5--5----5--8----||-
 -||----3----3---x-x--6-----8----6-------3--3----3--6----||-

Interlude:
 
 -||---------------------------------|---------------------------------------||-
 -||---------------------------------|---------------------------------------||-
 -||---------------------------------|---------------------------------------||-
 -||---------------------------------|---------------------------------------||-
 -||--3-3--3-3--3-3--3--2--1-1--x-1--|--------------3--3--5--5-------4-4--3--||-
 -||---------------------------------|--3--3--6--6--------------3------------||-

> > > >
Then Bass play this:
 
 -||-----------------------------|-----------------------------------||-
 -||-----------------------------|-----------------------------------||-
 -||-----------------------------|-----------------------------------||-
 -||-----------------------------|-----------------------------------||-
 -||----1--3--------1-1--1--3----|----1--3--------1-1--1--3----------||-
 -||-----------------------------|-----------------------------------||-

and Guitar this: Just mute all the strings while you rock
the Wah up and down in certain rythms.
 
 -||---------------------------------------------------------||-
 -||----x--x--x--x--x--x--x--x--x--x--x--x--x--x--x--x--x----||-
 -||----x--x--x--x--x--x--x--x--x--x--x--x--x--x--x--x--x----||-
 -||----x--x--x--x--x--x--x--x--x--x--x--x--x--x--x--x--x----||-
 -||---------------------------------------------------------||-
 -||---------------------------------------------------------||-

> = Accentuate the note, play it louder
x = Mute the string
\ = Slide down

Important: The song above is NOT stored on the Chordie server. The original song is hosted at www.xguitar.com. Chordie works as a search engine and provides on-the-fly formatting. Chordie does not index songs against artists'/composers' will. To remove this song please click here.

Text color:
Chord color:
Chord grids: 
Font size:    
Page size: 

Bb5 C5 G5
Rate #3 of 5 versions

Login - add to songbook

SHARE PAGE  




You need to log in to post comments