Guitar Tabs, Chords and Lyrics
Major upgrade!! After one year development the new version of Chordie is now online! Please give feedback.


All I Want Is More   Reel Big Fish

 
 e|--5--4--5--8--0--2--3--| |-----------------|------------------|
 b|--5--5--7--7--0--2--3--| |--7--7--8--7--7--|--9--9--10--9--9--|
 g|--6--6--7--7--1--3--4--| |--7--7--7--7--7--|--9--9--9---9--9--|
 d|--7--6--7--7--2--4--5--| |--7--7--7--7--7--|--9--9--9---9--9--|
 a|--7--4--5--5--2--4--5--| |--5--5--5--5--5--|--7--7--7---7--7--|
 e|--5-----------0--2--3--| |-----------------|------------------|

 


 


 fill 1


 


 

 
 e|---------------------------------------------------------|
 b|---------------------------------------------------------|
 g|--9-9-9-9-7-6----9-9-9-9-7-6----9-9-9-9-7-6-7-7-7-7-6-4--|
 d|--------------7--------------7---------------------------|
 a|---------------------------------------------------------|
 e|---------------------------------------------------------|

 


 


 intro: a dbm d f#->g


 [a] [dbm] [d] [d1]  


 a dbm d f#->g x3 (here's where the rest of the band comes in)


 [a] [dbm] [d] [d1]  


 a dbm d f# g x4 (here's where the distortion comes in)


 [a] [dbm] d dbm a d dbm a e


 (for the two a's above, hit just the


 open a string instead of the entire a chord.)


 (fill 1)


 


 a e f# d


 why can't she make up her ***in' mind


 a e f# d


 i'm just here wastin' so much time


 a e f# d a e f# d dbm a (open a string)


 i know it's my fault it's not my problem anymore


 a dbm d f# ---> g


 some day, maybe she'll come back to me


 a dbm d f# ----> g


 and i'll say, "why don't you go *** yourself!"


 a dbm d f# > g


 everybody's talkin', they know that i'm lyin'


 a dbm d f# > g e (fill 1)


 she gave me everything, all i want is more


 


 a e f# d


 i wrote this song for her


 a e f# d


 but it won't make up for anything


 a e f# d


 i know it's too late, so why do i wait


 a e f# d dbm a (open a string)


 it's not my problem anymore


 a dbm d f# ---> g


 some day maybe she'll come back to me


 a dbm d f# ----> g


 and i'll say "why don't you go *** yourself?"


 a dbm d f# > g


 everybody's talkin', they know that i'm lyin'


 a dbm d f# > g


 she won't do anything and i'll always wait for her


 


 pre-solo: e2 d2 e2 d dbm a d dbm a (for two a's, hit open a string)


 


 in this section listen for the slight rise and drop in tone


 in the e and d chords (here listed as the e2 and d2 chords).


 this is achieved by placing a finger on and off the b string


 one fret higher than the highest fret you're barring. confused?


 take a look at the pre-solo chord chart at the top of this page.


 


 solo: if you really want to, you can play a e f# d x4 under the solo


 


 

 
 e|------------------------------------------------------------
 b|------------------------------------------------------------
 g|---------------------------------------------------9--------
 d|--6h7-7-7-6h7-7-7-6h7-7-7-6h7-7-7-6h7-7-7-6h7-7-7-----------
 a|------------------------------------------------------------
 e|------------------------------------------------------------
 e-----------------------------10-9----------------------------
 b-----10---10---10---12-10-12------12-10----------------------
 g---9----9----9----9------------------------------------------
 d-------------------------------------------------------------
 a-------------------------------------------------------------
 e-------------------------------------------------------------
 e---9h10h12p10p9h10h12p10p9h10h12p10p9h10h12p10p9h10h12p10p---
 b-------------------------------------------------------------
 g-------------------------------------------------------------
 d-------------------------------------------------------------
 a-------------------------------------------------------------
 e-------------------------------------------------------------
 e---9h10h12p10p9h10h12s14-12-9-10-9----10-9-------------------|
 b-----------------------------------10------10-10s12-10-9-10--|
 g-------------------------------------------------------------|
 d-------------------------------------------------------------|
 a-------------------------------------------------------------|
 e-------------------------------------------------------------|


Important: The song above is NOT stored on the Chordie server. The original song is hosted at www.xguitar.com. Chordie works as a search engine and provides on-the-fly formatting. Chordie does not index songs against artists'/composers' will. To remove this song please click here.

This song is displayed as text-only. Transposing and tuning is only available for chordpro-songs.
Rate #3 of 4 versions

Login - add to songbook

SHARE PAGE  




You need to log in to post comments