Guitar Tabs, Chords and Lyrics
Major upgrade!! After one year development the new version of Chordie is now online! Please give feedback.


Everything Sucks  Reel Big Fish

intro:2x
[F] [C]  
 
 e|-1-1-x-1-x-1-x-1-|-x-1-x-1-x-1-x-1-|-----------------|-----------------|
 B|-1-1-x-1-x-1-x-1-|-x-1-x-1-x-1-x-1-|-5-5-x-5-x-5-x-5-|-x-5-x-5-x-5-x-5-|
 G|-2-2-x-2-x-2-x-2-|-x-2-x-2-x-2-x-2-|-5-5-x-5-x-5-x-5-|-x-5-x-5-x-5-x-5-|
 D|-3-3-x-3-x-3-x-3-|-x-3-x-3-x-3-x-3-|-5-5-x-5-x-5-x-5-|-x-5-x-5-x-5-x-5-|
 A|-3-3-------------|-----------------|-3-3-x-3-x-3-x-3-|-x-3-x-3-x-3-x-3-|
 E|-1-1-------------|-----------------|-----------------|-----------------|

then: 3x
[F] [A] [A#] [C]  
 
 e|---------5---6--6-6--8--8--|
 B|-10------5-x-6--6-6--8--8--|
 G|-10--x-x-6-x-7--7-7--9--9--|
 D|-10--x-x-7-x-8--8-8--10-10-| then a C chord on A string/3rd fret
 A|-8---x-x-7-x-8--8-8--10-10-|
 E|---------5---6--6-6--8--8--|

then:
[C] [A#] [A] [G] [C] [A#]  
 
 e|-------------|-------------|-------------|----------|---------|--------|
 B|-r--5--r--3--|-r--2--r-----|-r--5--r--3--|----------|---------|--------|
 G|-e--5--e--3--|-e--2--e--4--|-e--5--e--3--|--(distorted)-------|--------|
 D|-s--5--s--3--|-s--2--s--5--|-s--5--s--3--|----------|---------|--------|
 A|-t--3--t--1--|-t--0--t--5--|-t--3--t--1--|-33-1-0---|---------|--------|
 E|-------------|----------3--|-------------|--------3-|-1-------|--------|

riff X:(clean)
[F] [A] [A#] [F] [A] [C]  
 
 e|-1-1-x-1-x-1-x-1-|-x-5-x-5-x-5-x-6-|-1-1-x-1-x-1-x-1-|-x-5-x-5-x-5-x---|
 B|-1-1-x-1-x-1-x-1-|-x-5-x-5-x-5-x-6-|-1-1-x-1-x-1-x-1-|-x-5-x-5-x-5-x-5-|
 G|-2-2-x-2-x-2-x-2-|-x-6-x-6-x-6-x-7-|-2-2-x-2-x-2-x-2-|-x-6-x-6-x-6-x-5-|
 D|-3-3-x-3-x-3-x-3-|-x-7-x-7-x-7-x-8-|-3-3-x-3-x-3-x-3-|-x-7-x-7-x-7-x-5-|
 A|-3-3-------------|-----------------|-3-3-------------|---------------3-|
 E|-1-1-------------|-----------------|-1-1-------------|-----------------|

[F] [A] [A#] [A#] [C] [C]  
 
 e|-1-1-x-1-x-1-x-1-|-x-5-x-5-x-5-x-6-|-----------------|-----------------|
 B|-1-1-x-1-x-1-x-1-|-x-5-x-5-x-5-x-6-|-3---3---3---3---|-5---0---5---0---|
 G|-2-2-x-2-x-2-x-2-|-x-6-x-6-x-6-x-7-|-3---3---3---3---|-5---0---5---0---|
 D|-3-3-x-3-x-3-x-3-|-x-7-x-7-x-7-x-8-|-3---3---3---3---|-5---0---5---0---|
 A|-3-3-------------|-----------------|-1---1---1---1---|-3---0---3---0---|
 E|-1-1-------------|-----------------|-(distorted)-----|-----------------|

verse:(clean)
[F] [G] [A#] [A#] [F]  
 
 e||--1-----1----|--3-x-3-x-3-----8x||-----------------|-1-1-x-1-x-1-x-1-|
 B||--1-x-x-1--x-|--3-x-3-x-3-x-333-||-3-3-x-3-x-3-x-3-|-1-1-x-1-x-1-x-1-|
 G||*-2-x-x-2--x-|--4-x-4-x-4-x-333*||-3-3-x-3-x-3-x-3-|-2-2-x-2-x-2-x-2-|
 D||*-3-x-x-3--x-|--5-x-4-x-5-x-333*||-3-3-x-3-x-3-x-3-|-3-3-x-3-x-3-x-3-|
 A||--3-x-x-3--x-|--5---------x-111-||-1-1-x-1-x-1-x-1-|-3-3-------------|
 E||--1-----1----|--3---------------||-----------------|-1-1-------------|

[C] [F] [A#] [F]  
 
 e|-----------------|-1-1-x-1-x-1-x-1-|-----------------|-1-1-x-1-x-1-x-1-|
 B|-5-5-x-5-x-5-x-5-|-1-1-x-1-x-1-x-2-|-3-3-x-3-x-3-x-3-|-1-1-x-1-x-1-x-1-|
 G|-5-5-x-5-x-5-x-5-|-2-2-x-2-x-2-x-3-|-3-3-x-3-x-3-x-3-|-2-2-x-2-x-2-x-3-|
 D|-5-5-x-5-x-5-x-5-|-3-3-x-3-x-3-x-3-|-3-3-x-3-x-3-x-3-|-3-3-x-3-x-3-x-3-|
 A|-3-3-x-3-x-3-x-3-|-3-3-------------|-1-1-x-1-x-1-x-1-|-3-3-------------|
 E|-----------------|-1-1-------------|-----------------|-1-1-------------|

[G] [A#]  
 
 e|-----------------|
 B|-----------------|
 G|-----4------(7)--|
 D|-------5------(8)|
 A|---5-------8-----|
 E|-3------/6-------|

chorus:(distorted)
[F] [A] [A#] [C] [A#] [C]  
 
 e||------------------|--------------3x||-----------------|--------------|
 B||------------------|----------------||-3---3---3---3---|-5------------|
 G||*---------2---2---|-3---3---5---5-*||-3---3---3---3---|-5------------|
 D||*-3---3---2---2---|-3---3---5---5-*||-3---3---3---3---|-5------------|
 A||--3---3---0---0---|-1---1---3---3--||-1---1---1---1---|-3------------|
 E||--1---1-----------|----------------||-----------------|--------------|

then play Riff X,BUT also add measures 3 & 4(F A C) of it before it.
then Verse,
then Chorus, then the following 2x(clean)
[Dm] [G]  
 
 e|-5-5-x-5-x-5-x-5-|-x-5-x-5-x-5-x-5-|-3-3-x-3-x-3-x-3-|-x-3-x-3-x-3-x-3-|
 B|-6-6-x-6-x-6-x-6-|-x-6-x-6-x-6-x-6-|-3-3-x-3-x-3-x-3-|-x-3-x-3-x-3-x-3-|
 G|-7-7-x-7-x-7-x-7-|-x-7-x-7-x-7-x-7-|-4-4-x-4-x-4-x-4-|-x-4-x-4-x-4-x-4-|
 D|-7-7-x-7-x-7-x-7-|-x-7-x-7-x-7-x-7-|-5-5-x-5-x-5-x-5-|-x-5-x-5-x-5-x-5-|
 A|-5-5-------------|-----------------|-5-5-------------|-----------------|
 E|-----------------|-----------------|-3-3-------------|-----------------|

then,(distorted)
[A#] [C]  
 
 e|-----------------|-----------------|-----------------|-----------------|
 B|-3---3---3---3---|-3---3---3---3---|-5---5---5---5---|-5---5---5---5---|
 G|-3---3---3---3---|-3---3---3---3---|-5---5---5---5---|-5---5---5---5---|
 D|-3---3---3---3---|-3---3---3---3---|-5---5---5---5---|-5---5---5---5---|
 A|-1---1---1---1---|-1---1---1---1---|-3---3---3---3---|-3---3---3---3---|
 E|-----------------|-----------------|-----------------|-----------------|


Important: The song above is NOT stored on the Chordie server. The original song is hosted at www.xguitar.com. Chordie works as a search engine and provides on-the-fly formatting. Chordie does not index songs against artists'/composers' will. To remove this song please click here.

Text color:
Chord color:
Chord grids: 
Font size:    
Page size: 

A A# C Dm F G
Rate #3 of 5 versions

Login - add to songbook

SHARE PAGE  




You need to log in to post comments