Guitar Tabs, Chords and Lyrics
Major upgrade!! After one year development the new version of Chordie is now online! Please give feedback.


Join the Club  Reel Big Fish

Join the Club by Reel Big Fish
Tabbed by Vulgar101.com
This is my favorite RBF song. Not too complicated. I
even tabbed the lead part at the end. Aren't I nice?
[A] [C#] [D] [E]  
 
 E||--------------------------|--------------------------|
 B||--------------------5-----|--------7-----9h-10--9----|
 G||--------6--------------6--|-----------7--9-----------|
 D||-----------7-----6--------|-----7--------9-----------|
 A||-----7--------4-----------|--5-----------7-----------|
 E||--5-----------------------|--------------------------|

[A] [C#] [D] [E] [A] [C#]  
 
 --------------------------|--------------0--------|--------------------------|
 --------------------5-----|--------7-----0--------|--------------------5-----|
 --------6--------------6--|-----------7--1--------|--------6--------------6--|
 -----------7-----6--------|-----7--------2--------|-----------7-----6--------|
 -----7--------4-----------|--5-----------2--------|-----7--------4-----------|
 --5-----------------------|--------------0--------|--5-----------------------|

[D] [E] [A] [C#] [D] [E]  
 
 --------------------------|--------------------------|--------------0--------|
 --------7-----9h-10--9----|--------------------5-----|--------7-----0--------|
 -----------7--9-----------|--------6--------------6--|-----------7--1--------|
 -----7--------9-----------|-----------7-----6--------|-----7--------2--------|
 --5-----------7-----------|-----7--------4-----------|--5-----------2--------|
 --------------------------|--5-----------------------|--------------0--------|

[A] [C#] [D] [E]  
 
 --------------------------|--------------------------|
 --------------------5-----|--------7-----9h-10--9----|
 --------6--------------6--|-----------7--9-----------|
 -----------7-----6--------|-----7--------9-----------|
 -----7--------4-----------|--5-----------7-----------|
 --5-----------------------|--------------------------|

[A] [C#] [D] [E]  
 
 --------------------------|--------------0--------|------------------|
 --------------------5-----|--------7-----0--------|------------------|
 --------6--------------6--|-----------7--1--------|------------------|
 -----------7-----6--------|-----7--------2--------|------------------|
 -----7--------4-----------|--5-----------2--------|------------------|
 --5-----------------------|--------------0--------|------------------|

Horns Enter
 
 -------------------|-------------------|------------------|------------------|
 -------------------|-------------------|------------------|------------------|
 -------------------|-------------------|------------------|------------------|
 -------------------|-------------------|------------------|------------------|
 -------------------|-------------------|------------------|------------------|
 --------------7----|--5----------------|------------------|------------------|

PALM MUTE Light Ska
[A]  
 
 ------------------------------|------------------|-----5-5---5----5-5---5-|
 ------------------------------|------------------|-----5-5---5----5-5---5-|
 ------------------------------|------------------|-----6-6---6----6-6---6-|
 ------------------------------|------------------|------------------------|
 --7--7--7--7----7--7--7--7----|------------------|------------------------|
 ------------------------------|------------------|------------------------|

[D] [A] [D]  
 
 -----5-5---5----5-5---5-|-----5-5---5----5-5---5-|-----5-5---5----5-5---5-|
 -----7-7---7----7-7---7-|-----5-5---5----5-5---5-|-----7-7---7----7-7---7-|
 -----7-7---7----7-7---7-|-----6-6---6----6-6---6-|-----7-7---7----7-7---7-|
 ------------------------|------------------------|------------------------|
 ------------------------|------------------------|------------------------|
 ------------------------|------------------------|------------------------|

[A] [D] [A]  
 
 -----5-5---5----5-5---5-|-----5-5---5----5-5---5-|-----5-5---5----5-5---5-|
 -----5-5---5----5-5---5-|-----7-7---7----7-7---7-|-----5-5---5----5-5---5-|
 -----6-6---6----6-6---6-|-----7-7---7----7-7---7-|-----6-6---6----6-6---6-|
 ------------------------|------------------------|------------------------|
 ------------------------|------------------------|------------------------|
 ------------------------|------------------------|------------------------|

Double Time Ska
[D] [A] [C#] [D] [E]  
 
 --5----------------|--5--5-5-4--4-5--5-5-5-7-7-7-7-|
 --7----------------|--5--5-5-5--5-7--7-7-7-9-9-9-9-|
 --7----------------|--6--6-6-6--6-7--7-7-7-9-9-9-9-|
 -------------------|--7--7-7-6--6-7--7-7-7-9-9-9-9-|
 -------------------|--7--7-7-4--4-5--5-5-5-7-7-7-7-|
 -------------------|--5--5-5-----------------------|

Horns
[A] [C#] [D] [E] [A] [C#] [D] [E]  
 
 --5--5-5-4--4-5--5-5-5-7-7-7-7-|--5--5-5-4--4-5--5-5-5-7-7-7-7-|
 --5--5-5-5--5-7--7-7-7-9-9-9-9-|--5--5-5-5--5-7--7-7-7-9-9-9-9-|
 --6--6-6-6--6-7--7-7-7-9-9-9-9-|--6--6-6-6--6-7--7-7-7-9-9-9-9-|
 --7--7-7-6--6-7--7-7-7-9-9-9-9-|--7--7-7-6--6-7--7-7-7-9-9-9-9-|
 --7--7-7-4--4-5--5-5-5-7-7-7-7-|--7--7-7-4--4-5--5-5-5-7-7-7-7-|
 --5--5-5-----------------------|--5--5-5-----------------------|

[A] [C#] [D] [E] [A] [C#] [D] [E]  
 
 --5--5-5-4--4-5--5-5-5-7-7-7-7-|--5--5-5-4--4-5--5-5-5-7-7-7-7-|
 --5--5-5-5--5-7--7-7-7-9-9-9-9-|--5--5-5-5--5-7--7-7-7-9-9-9-9-|
 --6--6-6-6--6-7--7-7-7-9-9-9-9-|--6--6-6-6--6-7--7-7-7-9-9-9-9-|
 --7--7-7-6--6-7--7-7-7-9-9-9-9-|--7--7-7-6--6-7--7-7-7-9-9-9-9-|
 --7--7-7-4--4-5--5-5-5-7-7-7-7-|--7--7-7-4--4-5--5-5-5-7-7-7-7-|
 --5--5-5-----------------------|--5--5-5-----------------------|

Verse 1
[A] [C#] [D] [E] [A] [C#] [D] [E]  
 
 --5--5-5-4--4-5--5-5-5-7-7-7-7-|--5-5--4--4--5--5--5-7-7-7-7-|
 --5--5-5-5--5-7--7-7-7-9-9-9-9-|--5-5--5--5--7--7--7-9-9-9-9-|
 --6--6-6-6--6-7--7-7-7-9-9-9-9-|--6-6--6--6--7--7--7-9-9-9-9-|
 --7--7-7-6--6-7--7-7-7-9-9-9-9-|-----------------------------|
 --7--7-7-4--4-5--5-5-5-7-7-7-7-|-----------------------------|
 --5--5-5-----------------------|-----------------------------|

[A] [C#] [D] [E] [A] [C#] [D] [E]  
 
 --5-5--4--4--5--5--5-7-7-7-7-|--5-5--4--4--5--5--5-7-7-7-7-|
 --5-5--5--5--7--7--7-9-9-9-9-|--5-5--5--5--7--7--7-9-9-9-9-|
 --6-6--6--6--7--7--7-9-9-9-9-|--6-6--6--6--7--7--7-9-9-9-9-|
 -----------------------------|-----------------------------|
 -----------------------------|-----------------------------|
 -----------------------------|-----------------------------|

[A] [C#] [D] [E] [A] [C#] [D] [E] [A] [C#] [D] [E]  
 
 --5-5--4--4--5--5--5-7-7-7-7-|----------------------|----------------------|
 --5-5--5--5--7--7--7-9-9-9-9-|----------------------|----------------------|
 --6-6--6--6--7--7--7-9-9-9-9-|-------6----7----9----|-------6----7----9----|
 -----------------------------|--7----6----7----9----|--7----6----7----9----|
 -----------------------------|--7----4----5----7----|--7----4----5----7----|
 -----------------------------|--5-------------------|--5-------------------|

[A] [C#] [D] [E] [A] [C#] [D] [E]  
 
 ----------------------|--5--5-5-4--4-5--5-5-5-7-7-7-7-|
 ----------------------|--5--5-5-5--5-7--7-7-7-9-9-9-9-|
 -------6----7----9----|--6--6-6-6--6-7--7-7-7-9-9-9-9-|
 --7----6----7----9----|--7--7-7-6--6-7--7-7-7-9-9-9-9-|
 --7----4----5----7----|--7--7-7-4--4-5--5-5-5-7-7-7-7-|
 --5-------------------|--5--5-5-----------------------|

Horns
[A] [C#] [D] [E] [A] [C#] [D] [E]  
 
 --5--5-5-4--4-5--5-5-5-7-7-7-7-|--5--5-5-4--4-5--5-5-5-7-7-7-7-|
 --5--5-5-5--5-7--7-7-7-9-9-9-9-|--5--5-5-5--5-7--7-7-7-9-9-9-9-|
 --6--6-6-6--6-7--7-7-7-9-9-9-9-|--6--6-6-6--6-7--7-7-7-9-9-9-9-|
 --7--7-7-6--6-7--7-7-7-9-9-9-9-|--7--7-7-6--6-7--7-7-7-9-9-9-9-|
 --7--7-7-4--4-5--5-5-5-7-7-7-7-|--7--7-7-4--4-5--5-5-5-7-7-7-7-|
 --5--5-5-----------------------|--5--5-5-----------------------|

[A] [C#] [D] [E] [A] [C#] [D] [E]  
 
 --5--5-5-4--4-5--5-5-5-7-7-7-7-|--5--5-5-4--4-5--5-5-5-7-7-7-7-|
 --5--5-5-5--5-7--7-7-7-9-9-9-9-|--5--5-5-5--5-7--7-7-7-9-9-9-9-|
 --6--6-6-6--6-7--7-7-7-9-9-9-9-|--6--6-6-6--6-7--7-7-7-9-9-9-9-|
 --7--7-7-6--6-7--7-7-7-9-9-9-9-|--7--7-7-6--6-7--7-7-7-9-9-9-9-|
 --7--7-7-4--4-5--5-5-5-7-7-7-7-|--7--7-7-4--4-5--5-5-5-7-7-7-7-|
 --5--5-5-----------------------|--5--5-5-----------------------|

Verse 2
[A] [C#] [D] [E] [A] [C#] [D] [E]  
 
 --5-5--4--4--5--5--5-7-7-7-7-|--5-5--4--4--5--5--5-7-7-7-7-|
 --5-5--5--5--7--7--7-9-9-9-9-|--5-5--5--5--7--7--7-9-9-9-9-|
 --6-6--6--6--7--7--7-9-9-9-9-|--6-6--6--6--7--7--7-9-9-9-9-|
 -----------------------------|-----------------------------|
 -----------------------------|-----------------------------|
 -----------------------------|-----------------------------|

[A] [C#] [D] [E] [A] [C#] [D] [E]  
 
 --5-5--4--4--5--5--5-7-7-7-7-|--5-5--4--4--5--5--5-7-7-7-7-|
 --5-5--5--5--7--7--7-9-9-9-9-|--5-5--5--5--7--7--7-9-9-9-9-|
 --6-6--6--6--7--7--7-9-9-9-9-|--6-6--6--6--7--7--7-9-9-9-9-|
 -----------------------------|-----------------------------|
 -----------------------------|-----------------------------|
 -----------------------------|-----------------------------|

[A] [C#] [D] [E] [A] [C#] [D] [E] [A] [C#] [D] [E]  
 
 ----------------------|----------------------|----------------------|
 ----------------------|----------------------|----------------------|
 -------6----7----9----|-------6----7----9----|-------6----7----9----|
 --7----6----7----9----|--7----6----7----9----|--7----6----7----9----|
 --7----4----5----7----|--7----4----5----7----|--7----4----5----7----|
 --5-------------------|--5-------------------|--5-------------------|

[A] [C#] [D] [E] [B] [C#] [D] [E] [B] [C#] [D] [E]  
 
 ----------------------|----------------------|----------------------|
 ----------------------|----------------------|----------------------|
 --7----6----7----9----|--4----6----7----9----|--4----6----7----9----|
 --7----6----7----9----|--4----6----7----9----|--4----6----7----9----|
 --4----4----5----7----|--2----4----5----7----|--2----4----5----7----|

[B] [C#] [D] [E]  
 
 --------------------|--------------------|------------------|
 --------------------|--------------------|------------------|
 --4--------6--------|--7--------9--------|------------------|
 --4--------6--------|--7--------9--------|------------------|
 --2--------4--------|--5--------7--------|------------------|
 --------------------|--------------------|------------------|

LIGHT SKA
[A] [D] [A]  
 
 -----5-5---5----5-5---5-|-----5-5---5----5-5---5-|-----5-5---5----5-5---5-|
 -----5-5---5----5-5---5-|-----7-7---7----7-7---7-|-----5-5---5----5-5---5-|
 -----6-6---6----6-6---6-|-----7-7---7----7-7---7-|-----6-6---6----6-6---6-|
 ------------------------|------------------------|------------------------|
 ------------------------|------------------------|------------------------|
 ------------------------|------------------------|------------------------|

[D] [A] [D]  
 
 -----5-5---5----5-5---5-|-----5-5---5----5-5---5-|-----5-5---5----5-5---5-|
 -----7-7---7----7-7---7-|-----5-5---5----5-5---5-|-----7-7---7----7-7---7-|
 -----7-7---7----7-7---7-|-----6-6---6----6-6---6-|-----7-7---7----7-7---7-|
 ------------------------|------------------------|------------------------|
 ------------------------|------------------------|------------------------|
 ------------------------|------------------------|------------------------|

SAX SOLO
[A] [D] [A]  
 
 -----5-5---5----5-5---5-|-----5-5---5----5-5---5-|------5--------5----|
 -----5-5---5----5-5---5-|-----7-7---7----7-7---7-|------5--------5----|
 -----6-6---6----6-6---6-|-----7-7---7----7-7---7-|------6--------6----|
 ------------------------|------------------------|--------------------|
 ------------------------|------------------------|--------------------|
 ------------------------|------------------------|--------------------|

[D] [A] [D]  
 
 ------5--------5----|------5--------5----|------5--------5----|
 ------7--------7----|------5--------5----|------7--------7----|
 ------7--------7----|------6--------6----|------7--------7----|
 --------------------|--------------------|--------------------|
 --------------------|--------------------|--------------------|
 --------------------|--------------------|--------------------|

[A] [D] [A]  
 
 ------5--------5----|------5--------5----|------5--------5----|
 ------5--------5----|------7--------7----|------5--------5----|
 ------6--------6----|------7--------7----|------6--------6----|
 --------------------|--------------------|--------------------|
 --------------------|--------------------|--------------------|
 --------------------|--------------------|--------------------|

HORNS
[D] [A] [D]  
 
 ------5--------5----|------5--5------5----|------5--5------5----|
 ------7--------7----|------5--5------5----|------7--7------7----|
 ------7--------7----|------6--6------6----|------7--7------7----|
 --------------------|---------------------|---------------------|
 --------------------|---------------------|---------------------|
 --------------------|---------------------|---------------------|

[A] [D] [A]  
 
 ------5--5------5----|------5--5------5----|------5--5------5----|
 ------5--5------5----|------7--7------7----|------5--5------5----|
 ------6--6------6----|------7--7------7----|------6--6------6----|
 ---------------------|---------------------|---------------------|
 ---------------------|---------------------|---------------------|
 ---------------------|---------------------|---------------------|

[D] [A] [D]  
 
 ------5--5------5----|------5--5------5----|------5--5------5----|
 ------7--7------7----|------5--5------5----|------7--7------7----|
 ------7--7------7----|------6--6------6----|------7--7------7----|
 ---------------------|---------------------|---------------------|
 ---------------------|---------------------|---------------------|
 ---------------------|---------------------|---------------------|

[A] [D] [A]  
 
 -----5-5---5----5-5---5-|-----5-5---5----5-5---5-|-----5-5---5----5-5---5-|
 -----5-5---5----5-5---5-|-----7-7---7----7-7---7-|-----5-5---5----5-5---5-|
 -----6-6---6----6-6---6-|-----7-7---7----7-7---7-|-----6-6---6----6-6---6-|
 ------------------------|------------------------|------------------------|
 ------------------------|------------------------|------------------------|
 ------------------------|------------------------|------------------------|

[D] [A] [D]  
 
 -----5-5---5----5-5---5-|-----5-5---5----5-5---5-|--5----------------|
 -----7-7---7----7-7---7-|-----5-5---5----5-5---5-|--7----------------|
 -----7-7---7----7-7---7-|-----6-6---6----6-6---6-|--7----------------|
 ------------------------|------------------------|-------------------|
 ------------------------|------------------------|-------------------|
 ------------------------|------------------------|-------------------|

GUITAR SOLO
[A] [C#] [D] [E]  
 
 ------------------|-------------------------------|
 ------------------|-------------------------------|
 ------------------|-------------------------------|
 ------------------|--7~---------------------------|
 ------------------|--0--0-0-4--4-5--5-5-5-7-7-7-7-|
 ------------------|-------------------------------|

[A] [C#] [D] [E] [A] [C#] [D] [E]  
 
 -------------------------------|-------------------|
 -------------------------------|-------------------|
 -------------------------------|-------------------|
 --7~---------------------------|-------------------|
 --0--0-0-4--4-5--5-5-5-7-7-7-7-|--7~---------------|
 -------------------------------|-------------------|

[A] [C#] [D] [E]  
 
 --------------------------------------------------|
 --------------------------------------------------|
 --13-14-14-13-13-14-14-13-13-14-14-13-13-14-14-13-|
 --------------------------------------------------|
 --------------------------------------------------|
 --------------------------------------------------|

[A] [C#] [D] [E] [A] [C#] [D] [E]  
 
 --16-17-17-16-16-17-17-16-16-17-17-16-16-17-17-16-|--------------------|
 --------------------------------------------------|--17~---------------|
 --------------------------------------------------|--------------------|
 --------------------------------------------------|--------------------|
 --------------------------------------------------|--------------------|
 --------------------------------------------------|--------------------|

[A] [C#] [D] [E] [A] [C#] [D] [E] [A] [C#] [D] [E]  
 
 --5----4----5----7----|--5----4----5----7----|--5----4----5----7----|
 --5----5----7----9----|--5----5----7----9----|--5----5----7----9----|
 --6----6----7----9----|--6----6----7----9----|--6----6----7----9----|
 --7----6----7----9----|--7----6----7----9----|--7----6----7----9----|
 --7----4----5----7----|--7----4----5----7----|--7----4----5----7----|
 --5-------------------|--5-------------------|--5-------------------|

PALM MUTE
[A] [C#] [D] [E] [A] [A] [E]  
 
 --5----4----5----7----|--5----------------|--5--------------------|
 --5----5----7----9----|--5----------------|--5--------------------|
 --6----6----7----9----|--6----------------|--6----------9-9---9-9-|
 --7----6----7----9----|--7----------------|--7----------9-9---9-9-|
 --7----4----5----7----|--7----------------|--7----------7-7---7-7-|
 --5-------------------|--5----------------|--5--------------------|

[A] [A]  
 
 --5----------------|--5----------------||
 --5----------------|--5----------------||
 --6----------------|--6----------------||
 --7----------------|--7----------------||
 --7----------------|--7----------------||
 --5----------------|--5----------------||

Lyrics
Intro
Verse 1
was gonna call my friends and get 'em all together. I was
gonna go and start a band, but every
thing i wanna do has already been done.
why would i wanna go and do it again?
Horns Enter
Yeah Yeah Yeah Whoa Oh!
Yeah Yeah Yeah Whoa Oh!
Yeah Yeah Yeah!
Double Time
Verse 1 Repeat
was gonna call my friends and get 'em all together. I was
gonna go and start a band, but every
thing i wanna do has already been done.
why would i wanna go and do it again?
Everybody!!
Everybody!!
Everybody!!
Plays Guitar!!!
Verse 2
she's so cute (if you know what i mean)
she's the cutest little girl, that i've ever seen.
maybe she'll like me if i play the guitar
maybe she'll like me if i'm the lead singer
Yeah!!
Oh yeah!!
there's so many bands, and
we all look the same...
Bridge
I just saw them, up on stage and I
don't remember how good they played.
Cause they can't sing!!
But I'd pay just to see her face
Yeah Yeah Yeah Yeah!!
Slow Ska
Sax Solo
All Right!! Here We Go!!!
Yeah Yeah Yeah Whoa Oh!
Yeah Yeah Yeah Whoa Oh!
Yeah Yeah Yeah!
Everybody's in a band
Yeah Yeah Yeah!
Have you heard of my band?
Whew Whooo Whooo!!
We try to be different
But I guess that's nothing new.

Important: The song above is NOT stored on the Chordie server. The original song is hosted at www.xguitar.com. Chordie works as a search engine and provides on-the-fly formatting. Chordie does not index songs against artists'/composers' will. To remove this song please click here.

Text color:
Chord color:
Chord grids: 
Font size:    
Page size: 

A B C# D E
Rate #4 of 5 versions

Jango Player

Login - add to songbook

SHARE PAGE  



You need to log in to post comments