Guitar Tabs, Chords and Lyrics
Major upgrade!! After one year development the new version of Chordie is now online! Please give feedback.


Sell Out  Reel Big Fish

Turn The Radio Off
This song is in E flat
Intro
 
 |-----------------------------------------------------------|
 |-----------------------------------------------------------|
 |-----------------------------------------------------------|
 |--------7---7--6-6-7----------6----9-----------4----7------| (Repeat)
 |--------7---7--6-6-7-----7----------------5----------------|
 |--------5---5--4-4-5---------------------------------------|

Main Theme
Strummed /w distortion
[G#maj] [A#min] [C#maj] [D#maj]  
 
 |------5---------7-----------------------------------------|
 |------5---------7----------7----------9-------------------|
 |------6---------7----------7----------9-------------------| (Repeat)
 |------7---------9----------7----------9-------------------|
 |------7---------9----------5----------7-------------------|
 |------5---------7-----------------------------------------|

Verse (Same progression as Theme)
Ska Upstrokes
[G#maj] [A#min] [C#maj] [D#maj]  
 
 |------5---------7------------------------------------------|
 |------5---------7----------7----------9--------------------|
 |------6---------7----------7----------9--------------------| (Repeat)
 |------7---------9----------7----------9--------------------|
 |------7---------9----------5----------7--------------------|
 |------5---------7------------------------------------------|

On the 4th time play this
(Upstrokes) (Strum)
[G#maj] [A#min]  
 
 |------5---------7------------------------------------------|
 |------5---------7------------------------------------------|
 |------6---------7--------6----7---9----------7-7-7---------|
 |------7---------9--------6----7---9----------7-7-7---------|
 |------7---------9--------4----5---7----------5-5-5---------|
 |------5---------7------------------------------------------|

Pre-Chorus
G#maj Cmin C#maj 4th time ending
 
 |-----5-------------------------|----------------------------|
 |-----5--------5--------7-------|----------------------------|
 |-----6--------6--------7-------|-7------9-9---6--7--9-------|
 |-----7--------6--------7-------|-7------9-9---6--7--9-------|
 |-----7--------4--------5-------|-5------7-7---4--5--7-------|
 |-----5-------------------------|----------------------------|

Chorus
Upstrokes (4th time play this)
[G#maj] [C#maj] [D#maj]  
 
 |------5---------------------------------|-----5----------------|
 |------5--------7--------9---------------|-----5----------------|
 |------6--------7--------9---------------|-----6----------------|
 |------7--------7--------9---------------|-----7-----x-x-x-x-x--|
 |------7--------5--------7---------------|-----7-----x-x-x-x-x--|
 |------5---------------------------------|-----5-----x-x-x-x-x--|

Bridge
Strumming
[Cmin] [C#maj] [G#maj]  
 
 |----------------------5----------------------------------------|
 |-----5-------7--------5----------------------------------------|
 |-----6-------7--------6----------------------------------------|
 |-----6-------7--------7----------------------------------------| x2
 |-----4-------5--------7----------------------------------------|
 |----------------------5----------------------------------------|

[C#maj] [G#maj] [Cmin] [C#maj] [D#maj]  
 
 |-----------------------5-------------------------------------------------|
 |-------------7---------5---------------7-------7----------9--------------|
 |-----4-------7---------6---------4-----6-------7----------9---------7----|
 |-----4-------7---------7---------4-----6-------7----------9---------7----|
 |-----2-------5---------7---------2-----4-------5----------7---------5----|
 |-----------------------5-------------------------------------------------|

Outro
Strum
 
 |------------------------------------------------------|
 |------------------------------------------------------|
 |----14------------------------------------------------|
 |-----X------------------------------------------------|
 |----12------------------------------------------------|
 |------------------------------------------------------|

Intro x4
Main Theme x4
Verse x2
Main Theme x1
Verse x2 (Including ending)
Pre-Chorus x4 (Including Ending)
Chorus x4
Main Theme x4
Verse x4 (Including ending)
Pre-Chorus x4 (Including ending)
Chorus x4
Intro x4
Bridge
Pre-Chorus x4 (Including ending)
Chorus x4
Main Theme x2 (With pauses)
Main Theme x6 (Full Strum)
Solo (I haven't figured it out yet)
Outro until End on G#maj

Important: The song above is NOT stored on the Chordie server. The original song is hosted at www.xguitar.com. Chordie works as a search engine and provides on-the-fly formatting. Chordie does not index songs against artists'/composers' will. To remove this song please click here.

Text color:
Chord color:
Chord grids: 
Font size:    
Page size: 

A#min C#maj Cmin D#maj G#maj
Rate #2 of 6 versions

Jango Player

Login - add to songbook

SHARE PAGE  




You need to log in to post comments