Guitar Tabs, Chords and Lyrics
Major upgrade!! After one year development the new version of Chordie is now online! Please give feedback.


Drinkin'  Reel Big Fish

Guitar 1
 
 |--10----10----10----10----9----9----7---7--------------|
 |-----10----10----10----10---10---10---8---8------------|
 |-------------------------------------------------------|
 |-------------------------------------------------------|
 |-------------------------------------------------------|

Do that little riff twice before guitar 2 enters with:
 
 |-------------------------------------------------------|
 |--7-~~~~~~~~~~~~----999-----777------------------------|
 |--7-~~~~~~~~~~~~----777-----555------------------------|
 |--5-~~~~~~~~~~~~---------------------------------------|
 |-------------------------------------------------------|

Play that 3x then
riff 1
 
 |-------------------------------------------------------|
 |-------------------------------------------------------|
 |-------------------6-7-9-7-----------------------------|
 |-7-7-7-7-7-7-7-7---4-5-7-5\----------------------------|
 |-5-5-5-5-5-5-5-5---------------------------------------|

PM***************
Play Ska Upchords
she told me t[A]hat I [G]was la[D]me
with her middle[A] finger [G]in my [D]face
Bm Riff 1
wont waste her time with such a loser
[D]so now I [A]wallow [G]in regre[D]t
wanna do something r[A]ight but I [G]haven't ye[D]t
Bm Riff 1
why do my endeavors end up in failure
Play as Power Chords
[G]I think I'll [A]go out [D]drinkin'[F#] [E] [D]
[G]drinkin' all [A]night l[D]ong[F#] [E] [D]
[G]cuz if I go out [A]drinkin'
[D]then I can stop [Bm]thinkin'
G A Play Intro
bout how the world done me wrong
Ska Upstrokes
[D]I guess I [A]shouldn't [G]feel so [D]bad
ain't got [A]much reason [G]to feel so [D]sad
Bm Riff 1
'cept that I'm poor untalented and ugly
[D]I know its [A]like they a[G]lways [D]say
good times and [A]bad will [G]come our [D]way
Bm Riff 1
but theres only one thing that'll make this easier
Play as Power Chords
[G]I think I'll [A]go out [D]drinkin'[F#] [E] [D]
[G]drinkin' all [A]night l[D]ong[F#] [E] [D]
[G]cuz if I go out [A]drinkin'
[D]then I can stop [Bm]thinkin'
[G]bout how the [A]world done me [Bm]wrong
Bridge Played w/ ska upstrokes Slowly
so [D]wrong
I sing this [G]song and no[A]body sings [D]along
Play Faster
I've got a [Bm]friend
he's in my [D]hand
he under[G]stands
he said to [A]me everything wont be so bad!
Beginning Solo Part
[G] [A] [D]  
 
 |-------------------------------------------------------|
 |-------------------------------------------------------|
 |-------------------------------------------------------|
 |---------5h7----------7h9-4/555-4/555-4/555-4/555------|
 |-3-3-5/7------5-5-7/9----------------------------------|

G A D Continue solo
 
 |-------------------------------------------------------|
 |------------------------------------Guitar 2 plays-----|
 |--------------------------------------Rhythm-----------|
 |---------5h7----------7h9------------------------------|
 |-3-3-5/7------5-5-7/9----------------------------------|

[G] [A] [D] [Bm]  
[G] [A]  
Play Intro
Play as upstrokes
[G]I think I'll [A]go out [D]drinkin'
[G]drinkin' all [A]night l[D]ong
[G]cuz if I go out [A]drinkin'
[D]then I can stop [Bm]thinkin'
G A Play intro once
bout how the world done me wrong
Play as power chords
[G]I think I'll [A]go out [D]drinkin'[F#] [E] [D]
[G]drinkin' all [A]night l[D]ong[F#] [E] [D]
[G]cuz if I go out [A]drinkin'
[D]then I can stop [Bm]thinkin'
[G]bout how the [A]world done me
[G]bout how the [A]world done me
G A Play Intro
bout how the world done me wrong
End on D and yer done. This is my first tab so bare with me.

Important: The song above is NOT stored on the Chordie server. The original song is hosted at www.xguitar.com. Chordie works as a search engine and provides on-the-fly formatting. Chordie does not index songs against artists'/composers' will. To remove this song please click here.

Text color:
Chord color:
Chord grids: 
Font size:    
Page size: 

A Bm D E F# G
Rate #3 of 3 versions

Jango Player

Login - add to songbook

SHARE PAGE  



You need to log in to post comments