Guitar Tabs, Chords and Lyrics
Major upgrade!! After one year development the new version of Chordie is now online! Please give feedback.


Powder & Iron  Running Wild

Running Wild - POWDER & IRON
 
 ----------------------------

of Black Hand Inn album
Tabbed by Ivan "JESTER" Jimenez
e-mail: f3080960@est.fib.upc.es
z Notation is for Standard tuned guitar
z <-.-. pm ..-.-> means Palm Muted section between < and >
z There are only the rythm guitar patterns.
z Song structure is at the end of the document
Riff 1
[B] [B] [A] [D] [A] [B] [A] [B] [D] [B] [A] [D] [A] [B]  
 
 |------------------------------------------------------|
 |------------------------------------------------------|
 |--4-----4----2--7--2--4-----2--4--7--2----2--7--2---4-|
 |--4-----4----2--7--2--4-----2--4--7--2----2--7--2---4-|
 |--2-----2----0--5--0--2-----0--2--5--4----0--5--0---2-|
 |------------------------------------------------------|

Riff 2
[B] [A] [B] [A] [D] [A]  
 
 |-----------------------------------------------------------------|
 |-----------------------------------------------------------------|
 |-----------------------------------------------------------------|
 |-----------------------------------------------------------------|
 |-2-2-2-2-2-2-2-2-2-2-0-0-0-0-2-2-2-2-2-0-0-0-0-5-5-5-5-5-0-0-0-0-|
 |-----------------------------------------------------------------|
 <.-.-. palm muted -.-.-.-.-.-.-.-.-.-.-.-.-.-.-.-.-.-.-.-.-.-.-.->

Riff 3
 
 |----------------------------------|
 |----------------------------------|
 |----------------------------------|
 |----------------------------------|
 |-2-2-2-2-2-2-0-0-5-5-5-5-0-0-0-0--|
 |----------------------------------|
 <.-.-.- palm muted .-.-.-.-.-.-.->

Riff 4
[B] [A] [D] [A]  
 
 |-----------------------------------------------------------|
 |-----------------------------------------------------------|
 |-4-----4-----4-----4--2-2-2-2--7-----7-----7-----7--2-2-2--|
 |-4-----4-----4-----4--2-2-2-2--7-----7-----7-----7--2-2-2--|
 |-2-2-2-2-2-2-2-2-2-2--0-0-0-0--5-5-5-5-5-5-5-5-5-5--0-0-0--|
 |-----------------------------------------------------------|

[B] [A] [D] [E] [A]  
 
 |-----------------------------------------------------------|
 |-----------------------------------------------------------|
 |-4-----4-----4-----4--2-2-2-2--7-----7-----7---9----2-2-2--|
 |-4-----4-----4-----4--2-2-2-2--7-----7-----7---9----2-2-2--|
 |-2-2-2-2-2-2-2-2-2-2--0-0-0-0--5-5-5-5-5-5-5---7----0-0-0--|
 |-----------------------------------------------------------|

Riff 5
[B] [A] [G] [A] [G] [E] [B] [G] [B] [A]  
 
 |--------------------------------------|
 |--------------------------------------|
 |--4--2-------2----------4-----4--2----|
 |--4--2--5----2--5--2----4--5--4--2----|
 |--2--0--5----0--5--2----2--5--2--0----|
 |--------3-------3--0-------3----------|

Riff 6
 
 |--------------------------------------------------|
 |--------------------------------------------------|
 |-4--------7---------------------------------------|
 |-4--------7----------7----------5--------7--------|
 |-2-2-2-2--5-5-5-5-5--7----------5--------7--------|
 |---------------------5-5-5-5-5--3-3-3-3--5-5-5-5--|

Riff 7
[B] [D] [E] [D] [B] [G] [A]  
 
 |------------------------------------------------|
 |------------------------------------------------|
 |-4---4---4-----7--9--7-----4----4--------2-2----|
 |-4---4---4-----7--9--7-----4----4----5---2-2----|
 |-2---2---2-----5--7--5-----2----2----5---0-0----|
 |-------------------------------------3----------|

Riff 8
[B] [A] [B] [D] [B] [A] [D] [A] [B] [A] [B] [D] [B] [A] [D] [A] [B]  
 
 |--------------------------------------------------------------|
 |--------------------------------------------------------------|
 |--4--2--4---7--4---2--7--2--4----2-4---7-4----2-7-----2-4-----|
 |--4--2--4---7--4---2--7--2--4----2-4---7-4----2-7-----2-4-----|
 |--2--0--2---5--2---0--5--0--2----0-2---5-2----0-5-----0-2-----|
 |--------------------------------------------------------------|

Here are the 8 main rythm riffs of the song. Now coming the lyrics
and the riff wich you must play:
Powder & Iron
\
Riff 1 (x1) |
Riff 2 (x2) | ---> This is played like Intro, without lyrics,
Riff 3 (x4) | but with some lead guitar fills over.
[/]  
Riff 4 (x2)
Thunder shakes the wooden hull, ...
Riff 2 (x2)
Riff 4 (x2)
Powderkegs and ironballs, thunder ....
Riff 5 (x2)
Lightning strikes, smokescreen bites....
Riff 6 (x2)
Powder & iron, gun down ....
Riff 2 (x2)
Riff 4 (x2)
The privateers are in the plight...
Riff 5 (x2)
Lightning strikes, smokescreen bites....
Riff 6 (x2)
Powder & iron, gun down the ....
Riff 2 (x2)
Riff 7 (x2)
Riff 4 (x4) <----- played with Guitar solo
Riff 5 (x2)
Lightning strikes, smokescreen .....
Riff 6 (x4)
Powder & iron, gun down ......
Riff 2 (x2)
Riff 8 (x1) ---> played as outro, let ring the last note.

Important: The song above is NOT stored on the Chordie server. The original song is hosted at www.xguitar.com. Chordie works as a search engine and provides on-the-fly formatting. Chordie does not index songs against artists'/composers' will. To remove this song please click here.

Text color:
Chord color:
Chord grids: 
Font size:    
Page size: 

A B D E G
Rate #1 of 1 versions

Login - add to songbook

SHARE PAGE  



You need to log in to post comments