Guitar Tabs, Chords and Lyrics
Major upgrade!! After one year development the new version of Chordie is now online! Please give feedback.


Raw Ride  Running Wild

( tabs )
Transcription by erikgotborn@hotmail.com (erik gotborn)
Raw Ride
Taken from the album "Under Jolly Roger".
Tune down 1/2 step
Some parts are tricky in this song, and I?m not sure that it is 100
correct, so all adjustments will be welcome.
Riff 1
 
 E ------
 B ------
 G ------
 D ------

[A]E [--1-1-]--0-0-
Riff 2
 
 <---3x---> <---3x--->
 E ------------------------------------------------
 B ------------------------------------------------
 G ------------------------------------------------
 D ------------------------------------------------
 A --1-x-5--7-x--9---5--1-x-5--7-x---------0-------
 E --0-x-3--5-x--7---3--0-x-3--5-x--0--3-0---3-0-3-

Riff 3
 
 E ------------------------------------------------------
 B ------------------------------------------------------
 G ------------------------------------------------------
 D ------------------------------------------------------
 A --1-x--1-x--1-x--1-x--1-x-1-x--1-x--1-x--1-x--1-x-5-5-
 E --0-x--0-x--0-x--0-x--0-x-0-x--0-x--0-x--0-x--0-x-3-3-
 E ------------------------------------------------------
 B ------------------------------------------------------
 G ------------------------------------------------------
 D ------------------------------------------------------
 A --1-x--1-x--1-x--1-x--1-x-1-x--1-x--1-x--1-x--1-x-5-7-
 E --0-x--0-x--0-x--0-x--0-x-0-x--0-x--0-x--0-x--0-x-3-5-

Riff 4
 
 E ------------------
 B ------------------
 G ------------------
 D --1---1-4-5---5-4-
 A --0---0-2-3---3-2-
 E ------------------

Riff 5
 
 E --------
 B --------
 G --------
 D --1-----
 A --0---5-
 E ------3-

Riff 6
 
 E ---------------------------------------------
 B ---------------------------------------------
 G ---------------------------------------------
 D ---------------------------------------------
 A --1--1-1-1-1-7--5--0--0-0-5-5-5-5-5--7--5--9-
 E --0--0-0-0-0-5--3--1--1-1-3-3-3-3-3--5--3--7-

x x x x x x x x x x
Riff 7
 
 <-----4x------>
 E ----------------------------------
 B ----------------------------------
 G ----------------------------------
 D ----------------------------------
 A ------------------7--5--4---1-5-7-
 E --0-0-0-0-0-0-0-0-5--3--2---0-3-5-

x x x x x x x x
Riff 8
 
 E -----------------------------------------------
 B -----------------------------------------------
 G -----------------------------------------------
 D -----------------------------------------------
 A --7-x-5-x-7-x--5-x-7-x-5-x--9-x-7-x-9-x-7--9-9-
 E --5-x-3-x-5-x--3-x-5-x-3-x--7-x-5-x-7-x-5--7-7-
 E -----------------------------------------------
 B -----------------------------------------------
 G -----------------------------------------------
 D -----------------------------------------------
 A --7-x-5-x-7-x--5-x-7-x-5-x--9-x-7-x-9-x-7--5-7-
 E --5-x-3-x-5-x--3-x-5-x-3-x--7-x-5-x-7-x-5--3-5-

Riff 9
Guitar 1
 
 E --------------------------------------------------------
 B -----10--8--8-7---7---8-5--5--3-----8--7--7-5---5-------
 G --9-------------9----------------5------------7-----7-5-
 D --------------------------------------------------------
 A --------------------------------------------------------
 E --------------------------------------------------------

Guitar 2
 
 E ------------------------
 B ------------------------
 G ------------------------
 D --9----12--7--5----1--7-
 A --7----10--5--3----0--5-
 E ------------------------

Riff 10
Guitar 1
 
 <------2x-------> <-----2x-----> <----2x-------> <-----2x----->
 E --7--7----7-10-7----5--5---5-8-5---3--3---3-6-3---2--2---2-5-2---
 B -------10--------10------8-------8------6-------6------5-------5-
 G -----------------------------------------------------------------
 D -----------------------------------------------------------------
 A -----------------------------------------------------------------
 E -----------------------------------------------------------------
 <---2x--->
 E ---------------
 B -2--5--2-------
 G ----------4--6-
 D ---------------
 A ---------------
 E ---------------

Guitar 2
 
 E ----------------------
 B ----------------------
 G ----------------------
 D --9----7---------1--4-
 A --7----5----5----0--2-
 E ------------3---------

Riff 11
 
 E ------------
 B ------------
 G ------------
 D ------------
 A --1----5--7-
 E --0----3--5-

Riff 12
 
 <---3x--->
 E ------------------------------
 B ------------------------------
 G ------------------------------
 D --------------4----4-1--------
 A --1-x-5--7-x--2----2-0----5-1-
 E --0-x-3--5-x--------------3-0-

RAW RIDE
Riff 1 x1
Riff 2 x2
Riff 3 x3
Racing through the night
Pounding engine's roar
There's nothing that's like this
I'm burning to the core
Exhaust hangs in the air
Wind pressure thrusts my face
I love to ride and dare
Tonight I'm being chased
Riff 4 x3
Riff 5 x1
Riding hard, riding fast
Full speed ahead, hear my engine's blast
Spinning wheels roll down the road
I'm a bundle of power, see my rims glow
Riff 6 x2
Raw ride
On burning wheels tonight
Riff 2 x1
Riff 3 x2
Shooting through the dark
Taking bend after bend
Pistons are pumping hard
I'm gonna ride to the end
Twilight's coming slow
Like a jackal on attack
But I know I have to go
To go on and show my back
Riff 4 x3
Riff 5 x1
Riding hard, riding fast
Full speed ahead, hear my engine's blast
Spinning wheels roll down the road
I'm a bundle of power, see my rims glow
Riff 6 x2
Raw ride
On burning wheels tonight
Riff 7 x2
I have to break free, to live on my own way tonight
I don't give a goddamn, what you want to force upon me
Riff 8 x1
Fuck you !!!
Riff 9 x2
Riff 10 x2
Riff 11 x1
Riff 6 x4
Raw ride
On burning wheels tonight
Riff 12 x1

Important: The song above is NOT stored on the Chordie server. The original song is hosted at www.xguitar.com. Chordie works as a search engine and provides on-the-fly formatting. Chordie does not index songs against artists'/composers' will. To remove this song please click here.

Text color:
Chord color:
Chord grids: 
Font size:    
Page size: 

A
Rate #3 of 4 versions

Jango Player

Login - add to songbook

SHARE PAGE  



You need to log in to post comments