Guitar Tabs, Chords and Lyrics
Major upgrade!! After one year development the new version of Chordie is now online! Please give feedback.


Broken  Seether

 
 NOTE--------------------------------#


of the#

orresearch.#
 

------#

http://www.pconline.com/~smcarey/instab.html --#
 

------#
Author/Artist: Seether
Title: Broken
Album: Disclaimer
Transcribed by: Dakota<
Email: MoreOfNothing88@aol.com
h=hammer on
p=pull off
/=Slide up
\\=Slide down
X=Harmonic
This is a really good song and its very simple to play.The whole song is
acoustic, but you could play it with an electric if you anted to.Thats
what I used to tab this song out.
Tuning: Normal(eADGBE)
The intro is two guitars even though they only have one guitarist.So I
have wrote the chords and the guitar riff thing that plays in the
background also.
Intro: Little guitar part in the background.It's played on the intro and
verses.Listen to the song for timing.This is played through the whole
song except for the the chorus.
 
 -|-2h3-3-3--2h3-3-3--2h3-3-3--0h2-3p2-0h2-3p2------------------------
 -|-------------------------------------------------------------------
 -|-------------------------------------------------------------------
 -|-------------------------------------------------------------------
 -|-------------------------------------------------------------------
 -|-------------------------------------------------------------------

Main Guitar: These are just chords and they are very simple.Listen to
the song for the strumming patterns.The D chord has a little hammer pull
off thing too.It goes along with the guitar part in the background.
Intro and verse fill.
[Em] [C] [Em] [C] [Em] [C] [D] [D]  
 
 -|--0-------3----0-------3-----0------3---2-2h3p2--2-2h3p2-----------
 -|--0-------3----0-------3-----0------3---3-3------3-3---------------
 -|--0-------0----0-------0-----0------0---2-2------2-2---------------
 -|--2-------2----2-------2-----2------2------------------------------
 -|--2-------3----2-------3-----2------3------------------------------
 -|--0-------0----0-------0-----0------0------------------------------

1st Verse
[Em]I wanted [C]you to know, [Em]I love th[C]e way you laugh, [Em]I want t[C]o hold you high
D(with the hammer and pull off)
and steal your pain....away.
[Em]I keep yo[C]ur photograph, [Em]I know i[C]t serves me well, [Em]I want t[C]o hold you
D(with hammer and pull off)
high and steal your pain.
Chorus
Cause I'm [C]broook[Em]en, but I'm [C]ooope[Em]n, and I don't [C]feeel l[Em]ike I am st[C]rong
e[Em]nough. Cause I'm [C]brooo[Em]ken, when I'm [C]looone[Em]some, and I don't fe[C]eel
r[Em]ight, when you're g[C]one a[Em]way. (right after this just play the verse
fill which is just the same thing as the intro,it also has the guitar
part in the background with it)
2nd Verse
[Em]The worst [C]is over now, [Em]and we c[C]an breath again, [Em]I want [C]to hold you
D(with hammer and pull off)
high, and steal my pain....away.
[Em]There's so m[C]uch left to learn, [Em]and no
o[C]ne else to fight, [Em]I want [C]to hold you high and [D]steal your pain.
Repeat the chorus.
Right here before the solo theres a small little harmonic and its easy
to play, it's also played at the end.
 
 -|-12X---------------------------------------------------------------
 -|-12X---------------------------------------------------------------
 -|-12X---------------------------------------------------------------
 -|-12X---------------------------------------------------------------
 -|-------------------------------------------------------------------
 -|-------------------------------------------------------------------

While the solo is playing, the other guitar is just play the verse fill
(Em,C,Em,C,Em,C,D,D) and the D is played without the hammer on and pull
off.
Solo.
 
 -|-------------------------------------------------------------------
 -|-------------------------------------------------------------------
 -|----------------------------9-------------------------7------------
 -|-----0h2-2/5-4-4h5p4\\2-2---9-9-----0h2-2/5-4-4h5p4h5-7-10-9-7h9-9-9
 -|--0h2---------------------------0h2--------------------------------
 -|-0-----------------------------0-----------------------------------
 -|-------------------------------------------------------------------
 -|-------------------------------------------------------------------
 -|------------------------------9------------------------7-----------
 -|-----0h2-2/5-4-4h5p4\\2-7-5-2-9------0h2-2/5-4-4h5p4h5-7-10-9-7h9-9-
 -|--0h2----------------------------0h2-------------------------------
 -|-0------------------------------0----------------------------------
 -|-------------------------------------------------------------------
 -|-------------------------------------------------------------------
 -|-------------------------------------------------------------------
 -|-9-----------------------------------------------------------------
 -|-------------------------------------------------------------------
 -|-------------------------------------------------------------------

Chorus again.
Then play the verse fill but you don't play the D with the hammer and
pull off.
During the verse fill, it has another part with harmonics which, after
trial and error I finally figured out.
 
 -|-12X---------------12X---------------------------------------------
 -|---12X---------------12X------20X----------------------------------
 -|----------12X--------------------20X-------------------------------
 -|-------12X--------------------------20X----------------------------
 -|-------------------------------------------------------------------
 -|-------------------------------------------------------------------

^Repeat then play this harmonic and Em chord.
 
 -|-12X----0----------------------------------------------------------
 -|-12X----0----------------------------------------------------------
 -|-12X----0----------------------------------------------------------
 -|-12X----2----------------------------------------------------------
 -|--------2----------------------------------------------------------
 -|--------0----------------------------------------------------------

Like I said, this is a very simple song.The solo is 100% correct.I'm
pretty sure the whole song is 100% correct because I edited it over and
over again.I checked it and double checked it again to make sure it was
right on.But, if you find a mistake,correction, or just want to comment
on the tab, please e-mail me at MoreOfNothing88@aol.com

Important: The song above is NOT stored on the Chordie server. The original song is hosted at www.xguitar.com. Chordie works as a search engine and provides on-the-fly formatting. Chordie does not index songs against artists'/composers' will. To remove this song please click here.

Text color:
Chord color:
Chord grids: 
Font size:    
Page size: 

C D Em
Rate #18 of 21 versions

Jango Player

Login - add to songbook

SHARE PAGE  




You need to log in to post comments