Guitar Tabs, Chords and Lyrics
Major upgrade!! After one year development the new version of Chordie is now online! Please give feedback.


Across the Great Divide  Semisonic

This is a song. hoooo
A nice chunky tab
Intro/Verse:
a.k.a: B A E B
 
 E|------7-7-|--------7-7--|---7-7--|---7-7-7-7--|-------------------------------|
 B|------7-7-|--------7-7--|---7-7--|---7-7-7-7--|-------------------------------|
 G|--8-8-8-8-|----6-6-6-6--|---9-9--|---8-8-8-8--|-------------------------------|
 D|--9-9-9-9-|----7-7-7-7--|---9-9--|---9-9-9-9--|-------------------------------|
 A|--9-9-9-9-|----7-7-7-7--|---7-7--|---9-9-9-9--|-------------------------------|
 E|--7-7-7-7-|----5-5-5-5--|---7-7--|---7-7-7-7--|-------------------------------|

[C#] [G#] [A] [E]  
 
 E|------4-4--|-------4-4-|----7-7--|---7-7-7-7--|-------------------------------|
 B|------4-4--|-------4-4-|----7-7--|---7-7-7-7--|-------------------------------|
 G|--6-6-6-6--|---5-5-5-5-|----6-6--|---9-9-9-9--|-------------------------------|
 D|--6-6-6-6--|---6-6-6-6-|----7-7--|---9-9-9-9--|-------------------------------|
 A|--4-4-4-4--|---6-6-6-6-|----7-7--|---7--------|-------------------------------|
 E|--4-4-4-4--|---4-4-4-4-|----5-5--|---7--------|-------------------------------|

Chorus:
OH THE CHUNK! Just look at the chunk of the tab!
[B] [A] [E] [B]  
 
 E|--7-7-7-7-7-7-7-7----7-7-7-7-7-7-7-7-----7-7-7-7-7-7-7-7----7-7-7-7-7-7-7-7----|
 B|--7-7-7-7-7-7-7-7----7-7-7-7-7-7-7-7-----7-7-7-7-7-7-7-7----7-7-7-7-7-7-7-7----|
 G|--8-8-8-8-8-8-8-8----6-6-6-6-6-6-6-6-----9-9-9-9-9-9-9-9----8-8-8-8-8-8-8-8----|
 D|--9-9-9-9-9-9-9-9----7-7-7-7-7-7-7-7-----9-9-9-9-9-9-9-9----9-9-9-9-9-9-9-9----|
 A|--9-9-9-9-9-9-9-9----7-7-7-7-7-7-7-7-----7-7-7-7-7-7-7-7----9-9-9-9-9-9-9-9----|
 E|--7-7-7-7-7-7-7-7----5-5-5-5-5-5-5-5-----7-7-7-7-7-7-7-7----7-7-7-7-7-7-7-7----|

CHHHHHHHHHHHHUUUUUUUUUUUUUUUUNNNNNNNNNNNNKKKKKKKKKKKKKKKKKKYYYYYYYYYYYYYYYYYYY
Outro:
[B] [A] [E] [B]  
 
 E|--7-7-----7-7-7-7-----7-7-----7-----|
 B|--7-7-----7-7-7-7-----7-7-----7-----|
 G|--8-8-----6-6-6-6-----9-9-----8-----|
 D|--9-9-----7-7-7-7-----9-9-----9-----|
 A|--9-9-----7-7-7-7-----7-7-----9-----|
 E|--7-7-----5-5-5-5-----7-7-----7-----|

You get no solo tab INFIDEL!
Song structure goes a little like this:
Intro
Verse
Chorus
Verse
Chorus
Chorus
Chorus (mid distortion)
Outro
Bass Line
Solo (over Verse)
Chorus
Outro
And there you have it, the perfect recipe for a section of sonic

Important: The song above is NOT stored on the Chordie server. The original song is hosted at www.xguitar.com. Chordie works as a search engine and provides on-the-fly formatting. Chordie does not index songs against artists'/composers' will. To remove this song please click here.

Text color:
Chord color:
Chord grids: 
Font size:    
Page size: 

A B C# E G#
Rate #8 of 10 versions

Login - add to songbook

SHARE PAGE  




You need to log in to post comments