Guitar Tabs, Chords and Lyrics
Major upgrade!! After one year development the new version of Chordie is now online! Please give feedback.


Angel's Son  Sevendust

Author/Artist: Sevendust
Title: Angle's son
Album: Strait up (tribute to the late Lynn Strait)
Transcribed by: m.c.u.d
Email: hedpe_187@hotmail.com
tunig: (low to high) DADGCD both guitars
This is the tab for the strait up version not the animosity one
Intro:grt.1 (acous.)
*D7 F6 Gsus4
 
 -|--------0--------------0-------|--------0----------------0-------|-
 -|--------0--------------0-------|--------0----------------0-------|-
 -|-----------5-------5-------5---|------------5--------5-------5---|-
 -|----0--------------------------|----0----------------0-------0---|-
 -|-3-----------3h5---------------|---------------------------------|-
 -|-------------------------------|-3---------------5---------------|-

*chords refleact implied harmony
[Ab(#4)]  
 
 -|---------0------0-------0-------|---------0-------0-------0-------|-
 -|---------0------0-------0-------|---------0-------0-------0-------|-
 -|-----5------5-------5-------5---|-----5-------5-------5-------5---|-
 -|-----0------0-------------------|---------------------0-----------|-
 -|--------------------------------|---------------------------------|-
 -|-6------------------------------|-6-------------------------------|-

gtr.2 (elec.) w/clean tone,tremolo & octaver
[D7] [F6] [Csus2] [Ab(#4)]  
 
 -|--------------------|--------------------|------------------|-------------|-
 -|-2------------------|--------------------|-0----------------|-------------|-
 -|--------------------|--------------------|------------------|-1-----------|-
 -|--------------------|-3------------------|------------------|-------------|-
 -|--------------------|--------------------|------------------|-------------|-
 -|--------------------|--------------------|------------------|-------------|-

| |
| end intro |
 
 -|------0---------0---|------0---------0---|------0---0---0---|-0-----------|-
 -|------0---------0---|------0---------0---|------0---0---0---|-0-----------|-
 -|----5---5-----5---5-|----5---5-----5---5-|----5---5---5---5-|-5-----------|-
 -|--------------------|----0---------0-----|------------0---x-|-x-----------|-
 -|--------------------|--------------------|-3--------------0-|-0-----------|-
 -|-0---------0--------|-3---------3--------|----------------6-|-6-----------|-

Riff A:gtr.2 tremolo off
D7 D7/F# hold bend
 
 -|-------10101010----9-----7-----|-------7-7-7-7-----5-----7b-(8)-|-
 -|-------------------------------|--------------------------------|-
 -|-------------------------------|--------------------------------|-
 -|-------------------------------|--------------------------------|-
 -|-------------------------------|--------------------------------|-
 -|-------------------------------|--------------------------------|-

| |
| gtr.1 |
 
 -|-------0-0-0-0---0-0-0-0-0-0-0-|-------0-0-0-0---0-0-0-0-0-0--0-|-
 -|-------0-0-0-0---0-0-0-0-0-0-0-|-------0-0-0-0---0-0-0-0-0-0--0-|-
 -|-------5-5-5-5---5-4-4-4-2-2-2-|-------2-2-2-2---2-0-0-0-2-2--3-|-
 -|-------------------------------|--------------------------------|-
 -|-0--0--------------------------|-5--5---------------------------|-
 -|-0--0--------------------------|-4--4---------------------------|-

hold bend.....
Gm11 D7/F# end Riff A
 
 -|-(8)---7-7-7-7-r-7-7------5-----|-------7-7-7-7-----5-----4-----|-
 -|--------------------------------|-------------------------------|-
 -|--------------------------------|-------------------------------|-
 -|--------------------------------|-------------------------------|-
 -|--------------------------------|-------------------------------|-
 -|--------------------------------|-------------------------------|-

| |
| |
 
 -|-------0-0-0-0---0-0-0--0-0-0-0-|-------0-0-0-0---0-0-0-0-0-0-0-|-
 -|-------0-0-0-0---0-0-0--0-0-0-0-|-------0-0-0-0---0-0-0-0-0-0-0-|-
 -|-------3-3-3-3---3-3-3--5-3-3-3-|-------2-2-2-2---2-0-0-0-x-x-0-|-
 -|--------------------------------|-------------------------4-4---|-
 -|-5--5---------------------------|-5--5--------------------------|-
 -|-5--5---------------------------|-4--4--------------------------|-

Pre chorus: gtr.1
[D7]  
 
 -|-0--0--0-0---0--0-0--0-0--|-0--0---0-4--4-4-4-4-4--4-4--|-
 -|-0--0--0-0---0--0-0--0-0--|-0--0---0-0--0-0-0-0-0--0-0--|-
 -|-2--2--2-2---2--2-2--2-2--|-2--2---2-2--2-2-2-2-2--2-2--|-
 -|-0--0--0-0---0--0-0--0-0--|-0--0---0-0--0-0-0-0-0--0-0--|-
 -|-0--0--0-0---0--0-0--0-0--|-0--0---0-0--0-0-0-0-0--0-0--|-
 -|-0--0--0-0---0--0-0--0-0--|-0--0---0-0--0-0-0-0-0--0-0--|-

[D7/F#] [Gm11]  
 
 -|-0--0---0-0---0--0-0-0-0-0--|-0--0---0-0---0--0-0-0-0-0--|-
 -|-0--0---0-0---0--0-0-0-0-0--|-0--0---0-0---0--0-0-0-0-0--|-
 -|-2--2---2-2---2--2-2-2-2-2--|-3--3---3-3---3--3-3-3-3-3--|-
 -|-0--0---0-0---0--0-0-0-0-0--|-0--0---0-0---0--0-0-0-0-0--|-
 -|-x--x---x-x---x--x-x-x-x-x--|-x--x---x-x---x--x-x-x-x-x--|-
 -|-4--4---4-4---4--4-4-4-4-4--|-5--5---5-5---5--5-5-5-5-5--|-

[D7]  
 
 -|-0--0--0-0---0--0-0--0-0--|-0--0---0-4---4-4-4-4-4--4-4--|-
 -|-0--0--0-0---0--0-0--0-0--|-0--0---0-0---0-0-0-0-0--0-0--|-
 -|-2--2--2-2---2--2-2--2-2--|-2--2---2-2---2-2-2-2-2--2-2--|-
 -|-0--0--0-0---0--0-0--0-0--|-0--0---0-0---0-0-0-0-0--0-0--|-
 -|-0--0--0-0---0--0-0--0-0--|-0--0---0-0---0-0-0-0-0--0-0--|-
 -|-0--0--0-0---0--0-0--0-0--|-0--0---0-0---0-0-0-0-0--0-0--|-

[D7/F#7] [Gm11]  
 
 -|-0--0--0-0--0-0-0-0-0-0--|-0--0---0-0---0--0--0--|-0-0--0-0-0-0-0-0----|-
 -|-0--0--0-0--0-0-0-0-0-0--|-0--0---0-0---0--0--0--|-0-0--0-0-0-0-0-0----|-
 -|-2--2--2-2--2-2-2-2-2-2--|-3--3---3-3---3--3--3--|-3-3--3-3-3-3-3-3----|-
 -|-0--0--0-0--0-0-0-0-0-0--|-0--0---0-0---0--0--0--|-0-0--0-0-0-0-0-0----|-
 -|-x--x--x-x--x-x-x-x-x-x--|-x--x---x-x---x--x--x--|-x-x--x-x-x-x-x-x----|-
 -|-4--4--4-4--4-4-4-4-4-4--|-5--5---5-5---5--5--5--|-5-5--5-5-5-5-5-5-0--|-

Chorus:
[D7] [Dsus4]  
 
 -|-0----0----0--0----0---0--0--0--|-0----0-----0----0----0----x--|-
 -|-0----0----0--0----0---0--0--0--|-0----0-----0----0----0----x--|-
 -|-11---11---11-11---11--11-11-11-|-11---11----12---12---12---10-|-
 -|-x----x----x--x----x---x--x--x--|-x----x-----x----x----x----x--|-
 -|-9----9----9--9----9---9--9--9--|-9----9-----10---10---10---8--|-
 -|-0----0----0--0----0---0--0--0--|-0----0-----0----0----0----x--|-

[Bbadd9]  
 
 -|-0---0--0----0--0----0---0--0--0--0--|-0--0--0---0--0---0--0---0--0--0------|
 -|-0---0--0----0--0----0---0--0--0--0--|-0--0--0---0--0---0--0---0--0--0------|
 -|-10--10-10---10-10---10--10-10-10-10-|-10-10-10--10-10--10-10--10-10-10-----|
 -|-8---8--8----8--8----8---8--8--8--8--|-8--8--8---8--8---8--8---8--8--8------|
 -|-8---8--8----8--8----8---8--8--8--8--|-8--8--8---8--8---8--8---8--8--8------|
 -|-8---8--8----8--8----8---8--8--8--8--|-8--8--8---8--8---8--8---8--8--8--5-4-|

gtr.2
[D7/F#] [Gm11]  
 
 -|----7---------------------|-----8----------------------|-
 -|-7------------------------|-7---------7----------------|-
 -|--------------------------|----------------------------|-
 -|--------------------------|----------------------------|-
 -|--------------------------|----------------------------|-
 -|--------------------------|----------------------------|-

| |
| |
 
 -|-0--0--0---0--0-0-0-0-0-0-|-0---0---0-0---0--0-0-0-0-0-|-
 -|-0--0--0---0--0-0-0-0-0-0-|-0---0---0-0---0--0-0-0-0-0-|-
 -|-2--2--2---2--2-2-2-2-2-2-|-3---3---3-3---3--3-3-3-3-3-|-
 -|-0--0--0---0--0-0-0-0-0-0-|-0---0---0-0---0--0-0-0-0-0-|-
 -|-x--x--x---x--x-x-x-x-x-x-|-x---x---x-x---x--x-x-x-x-x-|-
 -|-4--4--4---4--4-4-4-4-4-4-|-5---5---5-5---5--5-5-5-5-5-|-

[D7/F#] [Gm11]  
 
 -|-----7-----7--10--------7---|----------------------|-
 -|-7------------------7-------|--7-------------------|-
 -|----------------------------|----------------------|-
 -|----------------------------|----------------------|-
 -|----------------------------|----------------------|-
 -|----------------------------|----------------------|-

| |
| |
 
 -|-0---0---0-0---0--0-0-0-0-0-|--0-------------------|-
 -|-0---0---0-0---0--0-0-0-0-0-|--0-------------------|-
 -|-2---2---2-2---2--2-2-2-2-2-|--3-------------------|-
 -|-0---0---0-0---0--0-0-0-0-0-|--0-------------------|-
 -|-x---x---x-x---x--x-x-x-x-x-|--x-------------------|-
 -|-4---4---4-4---4--4-4-4-4-4-|--5-------------------|-

Outro: gtr.1
[D7] [F6] [Gsus4]  
 
 -|--------0--------------0------|---------0---------------0------|-
 -|--------0---0----------0------|---------0---------------0------|-
 -|------------5--------------5--|-------------5---------------5--|-
 -|----0---------------0---------|-----0---------------0----------|-
 -|-3------------3h5-------------|--------------------------------|-
 -|------------------------------|-3-------------3h5--------------|-

[Ab(#4)]  
 
 -|-------0---0---0---|-0---0---0---0---|-0----------------|-
 -|---------0---------|---0---0---0---0-|---0--------------|-
 -|-----5-------5---5-|-----------------|-----5------------|-
 -|-------------------|-----------------|------------------|-
 -|-------------------|-----------------|------------------|-
 -|-6-----------------|-----------------|------------------|-

listen to song and piece all the riffs togather.
any comments email me (address at top)

Important: The song above is NOT stored on the Chordie server. The original song is hosted at www.xguitar.com. Chordie works as a search engine and provides on-the-fly formatting. Chordie does not index songs against artists'/composers' will. To remove this song please click here.

Text color:
Chord color:
Chord grids: 
Font size:    
Page size: 

Bbadd9 Csus2 D7 D7/F# Dsus4 F6 Gm11 Gsus4
Rate #4 of 4 versions

Jango Player

Login - add to songbook

SHARE PAGE  



You need to log in to post comments