Guitar Tabs, Chords and Lyrics
Major upgrade!! After one year development the new version of Chordie is now online! Please give feedback.


The Art of Balance  Shadows Fall

Destroyer Of Senses- Shadows Fall
The Art Of Balance
Drop C:
[C] [G] [C] [F] [A] [D]  
< > = Pinch Harmonic
+ = tap
here it is for all u shadows fall freaks rate this
100% right so rock on people
Intro: Fig. 1
 
 d-----------------------------------------------------------------
 a-----------------------------------------------------------------
 f-----------------------------------------------------------------
 c-------------3-----7\\3-----------------------3-----7\\3-----------
 g-0-1-0-5-3-0-1-3-0-5\\3-0-3-5-0-6-0-1-0-5-3-0-1-3-0-5\\3-0-3-5-3h5-
 c-0-1-0-5-3-0---3-0-----0-3-5-0-6-0-1-0-5-3-0---3-0-----0-3-5-----

Verses: Fig. 1
1st Chorus:
 
 d-----------------------------------------------------------------
 a-----------------------------------------------------------------
 f-----------------------------------------------------------------
 c-----------------------------------------------------------------
 g-0-----6---5----0-0-0-3-5-00-0--5~~~-0-6---5----0-0-0-1-3--6-----
 c-0-----6---5----0-0-0-3-5-00-0-------0-6---5----0-0-0-1-3--6-----

* * * ** * * * *
 
 d-----------------------------------------------------------------
 a-----------------------------------------------------------------
 f-----------------------------------------------------------------
 c-----------------------------------------------------------------
 g-0-----6---5----0-0-0-3-5-00-0-<5>~~-0-6---5----0-0-0-0-0-0-0-0--
 c-0-----6---5----0-0-0-3-5-00-0-------0-6---5----0-0-0-0-0-0-0-0--

* * * ** * * * * * * *
before verse: pm
 
 d-----------------------------------------------------------------
 a-----------------------------------------------------------------
 f-----------------------------------------------------------------
 c-----------------------------------------------------------------
 g-0-0-0-0-0-0-0-0-00-0--00-0--00-0--00-0--00-0--00-0--00-0--00-0--
 c-0-0-0-0-0-0-0-0-00-0--00-0--00-0--00-0--00-0--00-0--00-0--00-0--
 d---------------12--8----------
 a--------11-----13------11~~~--
 f-----9--12--9------12--10~~~--
 c-7--10-----10-----------------
 g-8----------------------------
 c------------------------------

2nd & 3rd Choruses:
 
 d-----------------------------------------------------------------
 a-----------------------------------------------------------------
 f-----------------------------------------------------------------
 c-----------------------------------------------------------------
 g-0-----6---5----0-0-0-3-5-00-0--5~~~-0-6---5----0-0-0-1-3--6-----
 c-0-----6---5----0-0-0-3-5-00-0-------0-6---5----0-0-0-1-3--6-----

* * * ** * * * *
 
 d-----------------------------------------------------------------
 a-----------------------------------------------------------------
 f-----------------------------------------------------------------
 c-----------------------------------------------------------------
 g-0-----6---5----0-0-0-3-5-00-0-<5>~~-0-6---5----0-0-0-1-3--6-----
 c-0-----6---5----0-0-0-3-5-00-0-------0-6---5----0-0-0-1-3--6-----

* * * ** * * * *
Interlude: let ring, slower tempo
 
 d-----------------------------------------------------------------
 a------------------------------------0----------------------------
 f------------------------------------0----------------------------
 c------------------------------------0----------------------------
 g-0----------------------------------0--------------------------
 c-0---------------------------------------------------------------

pm
 
 d-------------------------------------------------------------------
 a-------------------------------------------------------------------
 f-------------------------------------------------------------------
 c-------------------------------------------------------------------
 g-5-3-0-5-3-0-5-3-0-5-3-0-6-6-6-6-5-3-0-5-3-0-5-3-0-5-3-0-6----1----
 c-5-3-0-5-3-0-5-3-0-5-3-0-6-6-6-6-5-3-0-5-3-0-5-3-0-5-3-0-6-00-1-00-

* * * * * * * * * * * * * * * * * * * * * * * * * * * * ** **
x2
 
 d-----------------------------------------------------------------
 a-----------------------------------------------------------------
 f-----------------------------------------------------------------
 c-----------------------------------------------------------------
 g-5-3-0-5-3-0-5-3-0-5-3-0-6---6---5-3-0-5-3-0-5-3-0-5-3-0-6---1---
 c-5-3-0-5-3-0-5-3-0-5-3-0-6---6---5-3-0-5-3-0-5-3-0-5-3-0-6---1---

pm
 
 d-----------------------------------------------------------------
 a-----------------------------------------------------------------
 f-----------------------------------------------------------------
 c-----------------------------------------------------------------
 g-5-3-0-5-3-0-5-3-0-5-3-0-6-6-6-6-5-3-0-5-3-0-5-3-0-5-3-0-6---1---
 c-5-3-0-5-3-0-5-3-0-5-3-0-6-6-6-6-5-3-0-5-3-0-5-3-0-5-3-0-6---1---
 d-----------------------------------------------------------------
 a-----------------------------------------------------------------
 f-----------------------------------------------------------------
 c-----------------------------------------------------------------
 g-5-3-0-5-3-0-5-3-0-5-3-0-6---6---5-3-0-5-3-0-5-3-0-5-3-0-6---1---
 c-5-3-0-5-3-0-5-3-0-5-3-0-6---6---5-3-0-5-3-0-5-3-0-5-3-0-6---1---

resume fast tempo
pm
 
 d-------------------------------------------------
 a-------------------------------------------------
 f-------------------------------------------------
 c-------------------------------------------------
 g-0--0--0--0--0--0--0--0--------------------------
 c-0--0--0--0--0--0--0--0--00-0--00-0--00-0--00-0--

Solo: w/ Chorus
[+] 
 
 d-----------------------------------------------------------------------
 a-----------------------------------------------------------------------
 f-8b----8br--<7>~~~~-5h7p5---5-<7>~~~~~--10b~~~~15~~p3b--3p2---<2><3>~~-
 c--------------------------7-----------x---------------------3----------
 g--------------------------------------x--------------------------------
 c-----------------------------------------------------------------------
 d-10-8------10-8------12-8------10-10-----10h14p10----10h14p10-----
 a------10-8------10-8------10-8-------11-----------11----------11--
 f------------------------------------------------------------------
 c------------------------------------------------------------------
 g------------------------------------------------------------------
 c------------------------------------------------------------------
 d-10h13p10h13--10h13p10h13--15b~~~~-12h13h15p13p12-h13p12--
 a----------------------------------------------------------
 f----------------------------------------------------------
 c----------------------------------------------------------
 g----------------------------------------------------------
 c----------------------------------------------------------
 d----------------------------------------------------------
 a-15p13p11-13p11\\10-13p11p10-11p10-------------------------
 f----------------------------------12p10p9-10p9-7~~~~~~----
 c----------------------------------------------------------
 g----------------------------------------------------------
 c----------------------------------------------------------

Outro:
 
 d----------------------------------------------------------
 a----------------------------------------------------------
 f-7-6-5-----------7-6-5------------------------------------
 c-7-6-5-7-6-5-----7-6-5-7-6-5------------------------------
 g-------7-6-5-3-5-------7-6-5-3-5-0----6---5----0-0-0-3-5--
 c-------------3-5-------------3-5-0----6---5----0-0-0-3-5--


Important: The song above is NOT stored on the Chordie server. The original song is hosted at www.xguitar.com. Chordie works as a search engine and provides on-the-fly formatting. Chordie does not index songs against artists'/composers' will. To remove this song please click here.

Text color:
Chord color:
Chord grids: 
Font size:    
Page size: 

A C D F G
Rate #1 of 1 versions

Login - add to songbook

SHARE PAGE  




You need to log in to post comments