Guitar Tabs, Chords and Lyrics
Server problems seems to be fixed. Chordie has been experiencing problems with songs disappearing. These issues now seems to be fixed, but still verifying the fix. If you find anything strange, please email admin@chordie.com.


Act of Contrition   Shadows Fall

 
 |-----------------------------------------------|
 |-----------------------------------------------|
 |-7-----7-----9-----9-----9---9------7-----9----|
 |-x-----x-----x-----x-----x---x------x-----x----|
 |-5-----5-----7-----7-----7---7------5-----7----|
 |---0-0---0-0---0-0---0-0-----------------------|

 


 


 PM| PM| PM| PM|


 

 
 |-----------------------------------------------|
 |-----------------------------------------------|
 |-7-----7-----9-----9-----9---9------7-----9----|
 |-x-----x-----x-----x-----x---x------x-----x----|
 |-5-----5-----7-----7-----7---7------5-----7----|
 |---0-0---0-0---0-0---0-0-----------------------|

 


 


 PM PM PM PM PM PM PM


 

 
 |--------------------------------------------------|
 |--------------------------------------------------|
 |-----------------7-----------------3-----------5--|
 |-3-3---3-3---3-3-----2-2---3-3---3-----3-3---3----|
 |--------------------------------------------------|
 |-----0-----0-------0-----0-----0-----0-----0------|

 


 


 PM PM PM PM PM PM PM


 

 
 |------------------------------------------------------|
 |------------------------------------------------------|
 |-------------------7--------------------3-------------|
 |-3-3----3-3----3-3------2-2----3-3----3------3-3----3-|
 |------------------------------------------------------|
 |-----0------0--------0------0------0------0------0----|

 


 


 Gtr I Gtrs I, II


 PM| PM|


 

 
 |--------------------|-------------------------|---------------------|
 |-10-9-8-9-11-10-9-8-|-12-11-10-11-13-12-11-10-|---------------------|
 |--------------------|-------------------------|---------------------|
 |--------------------|-------------------------|-5-----2-----2-5-----|
 |--------------------|-------------------------|-3-----0-----0-3-----|
 |--------------------|-------------------------|---0-0---0-0---------|

 


 |


 | Gtr II


 

 
 |--------------------|-------------------------|---------------------|
 |--7-6-5-6--8--7-6-5-|--9--8--7--8-10--9--8--7-|---------------------|
 |--------------------|-------------------------|---------------------|
 |--------------------|-------------------------|---------------------|
 |--------------------|-------------------------|---------------------|
 |--------------------|-------------------------|---------------------|
 PM| PM| PM------------| PM| PM
 |-----------------------------------------------------|
 |-----------------------------------------------------|
 |-----------------------------------------------------|
 |-5-----2-----2-5-----------------5-----2--3----2--5--|
 |-3-----0-----0-3-----------------3-----0--1----0--3--|
 |---0-0---0-0-----0-0-0-0-0-0-0-0---0-0-------0-------|
 PM| PM| PM------------| PM| PM
 |---------------------------------------------------------|
 |---------------------------------------------------------|
 |---------------------------------------------------------|
 |-5-----2-----2-5-----------------5-----2--3----2---------|
 |-3-----0-----0-3-----------------3-----0--1----0----2----|
 |---0-0---0-0-----0-0-0-0-0-0-0-0---0-0-------0------2----|

 


 


 Gtr I


 PM PM


 

 
 |-----------------------------------------------------------|
 |-------------10-9-8-9-8-9-10-8-------------9-8-7-8-7-8-9-7-|
 |-------7-----------------------------7---------------------|
 |-------x-----------------------------x---------------------|
 |-------5-----------------------------5---------------------|
 |-0-0-0----0--------------------0-0-0----0------------------|

 


 |


 | Gtr II


 | PM PM


 

 
 |-----------------------------------------------------------|
 |--------------7-6-5-6-5-6--7-5-------------6-5-4-5-4-5-6-4-|
 |-------7-----------------------------7---------------------|
 |-------x-----------------------------x---------------------|
 |-------5-----------------------------5---------------------|
 |-0-0-0----0--------------------0-0-0----0------------------|

 


 


 PM PM


 

 
 |----------------------------------------------------------|
 |-------------10-9-8-9-8-9-10-8----------------------------|
 |-------7-----------------------------7--------------------|
 |-------x-----------------------------x--------------------|
 |-------5-----------------------------5--------------------|
 |-0-0-0----0--------------------0-0-0----0-2-2-2-2-3-3-3-3-|

 


 |


 | PM PM


 

 
 |----------------------------------------------------------|
 |--------------7-6-5-6-5-6--7-5----------------------------|
 |-------7-----------------------------7--------------------|
 |-------x-----------------------------x--------------------|
 |-------5-----------------------------5--------------------|
 |-0-0-0----0--------------------0-0-0----0-2-2-2-2-3-3-3-3-|

 


 


 Gtrs I, II


 

 
 PM------------------------| PM----| PM----|
 |-------------------------------------------------------------------------|
 |-------------------------------------------------------------------------|
 |-------------------------------------------------------------------------|
 |-7-5-----------------------------5---2---5----7--5-2---------------------|
 |-5-3-----------------------------3---0---3----5--3-0---------------------|
 |-----0-0-0-0-0-0-0-0-0-0-0-0-0-0---0---0---0---------0-0-0-0--0-0-0-0----|

 


 


 PM----| PM| PM PM PM


 

 
 |----------------------------------|
 |----------------------------------|
 |----------------------------9---7-|
 |--------------5-2---3-2---5-x---x-|
 |--------------3-0---1-0---3-7---5-|
 |-0-0-0-0--0-0-----0-----0-----0---|

 


 


 PM| PM| PM| PM|


 

 
 |------------------------------------------------|
 |------------------------------------------------|
 |-7-----7-----9-----9-----9----9------7-----9----|
 |-x-----x-----x-----x-----x----x------x-----x----|
 |-5-----5-----7-----7-----7----7------5-----7----|
 |---0-0---0-0---0-0---0-0------------------------|

 


 


 PM| PM| PM| PM|


 

 
 |------------------------------------------------|
 |------------------------------------------------|
 |-7-----7-----9-----9-----9----9------7-----9----|
 |-x-----x-----x-----x-----x----x------x-----x----|
 |-5-----5-----7-----7-----7----7------5-----7----|
 |---0-0---0-0---0-0---0-0------------------------|
 PM| PM| PM------------| PM| PM
 |---------------------------------------------------------|
 |---------------------------------------------------------|
 |---------------------------------------------------------|
 |-5-----2-----2-5-----------------5-----2--3----2----5----|
 |-3-----0-----0-3-----------------3-----0--1----0----3----|
 |---0-0---0-0-----0-0-0-0-0-0-0-0---0-0-------0-----------|
 PM| PM| PM------------| PM| PM
 |---------------------------------------------------------|
 |---------------------------------------------------------|
 |---------------------------------------------------------|
 |-5-----2-----2-5-----------------5-----2--3----2---------|
 |-3-----0-----0-3-----------------3-----0--1----0----2----|
 |---0-0---0-0-----0-0-0-0-0-0-0-0---0-0-------0------2----|

 


 


 Gtr I


 PM PM


 

 
 |-----------------------------------------------------------|
 |-------------10-9-8-9-8-9-10-8-------------9-8-7-8-7-8-9-7-|
 |-------7-----------------------------7---------------------|
 |-------x-----------------------------x---------------------|
 |-------5-----------------------------5---------------------|
 |-0-0-0----0--------------------0-0-0----0------------------|

 


 |


 | Gtr II


 | PM PM


 

 
 |-----------------------------------------------------------|
 |--------------7-6-5-6-5-6--7-5-------------6-5-4-5-4-5-6-4-|
 |-------7-----------------------------7---------------------|
 |-------x-----------------------------x---------------------|
 |-------5-----------------------------5---------------------|
 |-0-0-0----0--------------------0-0-0----0------------------|

 


 


 PM PM


 

 
 |----------------------------------------------------------|
 |-------------10-9-8-9-8-9-10-8----------------------------|
 |-------7-----------------------------7--------------------|
 |-------x-----------------------------x--------------------|
 |-------5-----------------------------5--------------------|
 |-0-0-0----0--------------------0-0-0----0-2-2-2-2-3-3-3-3-|

 


 |


 | PM PM


 

 
 |----------------------------------------------------------|
 |--------------7-6-5-6-5-6--7-5----------------------------|
 |-------7-----------------------------7--------------------|
 |-------x-----------------------------x--------------------|
 |-------5-----------------------------5--------------------|
 |-0-0-0----0--------------------0-0-0----0-2-2-2-2-3-3-3-3-|

 


 


 Gtrs I, II


 

 
 PM------------------------| PM PM PM PM----| PM----|
 |-----------------------------------------------------------------------|
 |-----------------------------------------------------------------------|
 |-----------------------------------------------------------------------|
 |-7-5-----------------------------5---2---5----7--5-2-------------------|
 |-5-3-----------------------------3---0---3----5--3-0-------------------|
 |-----0-0-0-0-0-0-0-0-0-0-0-0-0-0---0---0---0---------0-0-0-0--0-0-0-0--|
 PM----| PM| PM PM PM PM----------------------|
 |-----------------------------------|--------------------------------|
 |-----------------------------------|--------------------------------|
 |----------------------------9---7--|--------------------------------|
 |--------------5-2---3-2---5-x---x--|-7-5----------------------------|
 |--------------3-0---1-0---3-7---5--|-5-3----------------------------|
 |-0-0-0-0--0-0-----0-----0-----0----|-----0-0-0-0-0-0-0-0-0-0-0-0-0--|
 PM PM PM PM--------------------| PM PM PM
 |----------------|-----------------------------------------|
 |----------------|-----------------------------------------|
 |----------------|-----------------------------------------|
 |-2---5---2---7--|-7-5-------------------------2---5---2---|
 |-0---3---0---5--|-5-3-------------------------0---3---0---|
 |---0---0---0----|-----0-0-0-0-0-0-0-0-0-0-0-0---0---0---0-|

 


 


 Gtr I


 PM PM PM-| PM PM PM| PM PM


 

 
 |-----------------------------|---------------------------|---------------|
 |-----------------------------|---------------------------|---------------|
 |-----------------------------|---------------------------|---------------|
 |---6---6---6---6-------6-----|---6---6---6---6-----6-----|---6---6---6---|
 |-----4-------4-----------4-2-|-----4-------4---------4-2-|-----4-------4-|
 |-0-------0--------0--0-------|-0-------0-------0-0-------|-0-------0-----|

 


 |


 | Gtr II


 

 
 |-----------------------------|---------------------------|---------------|
 |-----------------------------|---------------------------|---------------|
 |-----------------------------|---------------------------|---------------|
 |-----------------------------|---------------------------|---------------|
 |-2---------------(2)---------|---------------------------|---------------|
 |-2---------------(2)---------|---------------------------|---------------|

 


 


 PM| PM ~~~~~ PM ~~~~~ PM PM PM PM|


 

 
 |-------------|-----------------------------------|---------------------------|
 |-------------|-----------------------------------|---------------------------|
 |-------------|-------[6]b8--------[6]b8----------|---------------------------|
 |-6-----6-----|-----------------------------6-----|---6---6---6---6-----6-----|
 |---------4-2-|---4-2----------4-2------------4-2-|-----4-------4---------4-2-|
 |---0-0-------|-0------------0------------0-------|-0-------0-------0-0-------|

 


 


 PM PM PM| PM PM PM|


 

 
 |---------------------------|---------------------------|
 |---------------------------|---------------------------|
 |---------------------------|---------------------------|
 |---6---6---6---6-----6-----|---6---6---6---6-----6-----|
 |-----4-------4---------4-2-|-----4-------4---------4-2-|
 |-0-------0-------0-0-------|-0-------0-------0-0-------|

 


 


 PM ~~~~~PM ~~~~~PM


 

 
 |----------------------------------|
 |----------------------------------|
 |-------[6]b8-------[6]b8----------|
 |---------------------------6------|
 |---4-2---------4-2-----------4-2--|
 |-0-----------0-----------0--------|

 


 


 Gtrs I, II Gtr I


 PM| PM| PM PM--|


 

 
 |---------------------|-----7-9-----7-9-----7-9-10-9-8-7-|
 |---------------------|----------------------------------|
 |---------------------|-7-9-----7-9-----7-9--------------|
 |---------------------|----------------------------------|
 |---------------------|----------------------------------|
 |-0-0--0-0--0--0-0-0--|----------------------------------|

 


 |


 | Gtr II


 

 
 | PM---------------------------|
 |---------------------|----------------------------------|
 |---------------------|----------------------------------|
 |---------------------|----------------------------------|
 |---------------------|-5--------------------------------|
 |---------------------|-3--------------------------------|
 |---------------------|---0-0-0-0-0-0-0-0-0-0-0--0-0-0-0-|
 |-----5-7-----5-7-----5-7-8-7-6-5-|-----5-7-6-5-6-7-14-13-18-17-15-14---|
 |---------------------------------|-------------------------------------|
 |-5-7-----5-7-----5-7-------------|-5-7---------------------------------|
 |---------------------------------|-------------------------------------|
 |---------------------------------|-------------------------------------|
 |---------------------------------|-------------------------------------|

 


 |


 

 
 | PM PM PM------------------| PM PM PM----------------------|
 |---------------------------------|-------------------------------------|
 |---------------------------------|-------------------------------------|
 |---------------------------------|-------------------------------------|
 |-5---5---5-----------------------|-2---2---2---------------------------|
 |-3---3---3-----------------------|-0---0---0---------------------------|
 |---0---0---0-0-0-0-0-0-0-0-0-0-0-|---0---0---0-0-0--0--0--0--0--0--0-0-|
 |-------------------------------|-15-17-18-17-15-17-15-|
 |----------15-17-18-17-15-17-15-|----------------------|
 |-15-17-18----------------------|----------------------|
 |-------------------------------|----------------------|
 |-------------------------------|----------------------|
 |-------------------------------|----------------------|

 


 |


 

 
 | PM PM PM-------------------
 |-------------------------------|----------------------|
 |-------------------------------|----------------------|
 |-------------------------------|----------------------|
 |--5-----------5-----------5----|----------------------|
 |--3-----------3-----------3----|----------------------|
 |--------0-----------0----------|--0-----0-----0-----0-|
 |----------------------|--------------------------------------|
 |-15-17-18-17-15-17-15-|--------------------------------------|
 |----------------------|-15-17-18-17-15-17-15-----------------|
 |----------------------|----------------------15-17-18--------|
 |----------------------|--------------------------------------|
 |----------------------|--------------------------------------|

 


 |


 

 
 |------------------------------| PM PM
 |----------------------|--------------------------------------|
 |----------------------|--------------------------------------|
 |----------------------|--------------------------------------|
 |----------------------|--------------2-----------2------2----|
 |----------------------|--------------0-----------0------0----|
 |--0-----0-----0-------|--0-----0-----------0----------0------|
 |-----------------------------------|-------------------------|
 |-----------------------14----------|-12----------------------|
 |-14---16-14-15---14-15----17-15-14-|----14-13----------------|
 |-----------------------------------|----------14-------------|
 |-----------------------------------|-------------14-15-14-15-|
 |-----------------------------------|-------------------------|

 


 |


 

 
 | PM--------------------| PM--| PM| PM-------
 |-----------------------------------|-------------------------|
 |-----------------------------------|-------------------------|
 |-----------------------------------|-------------------------|
 |--5---------------------------5----|-----2--------2----------|
 |--3---------------------------3----|-----0--------0----------|
 |----0--0--0--0-0--0--0--0--0-----0-|--0-----0--0-----0--0--0-|

 


 


 ~~ ~~


 

 
 |-----------------------|---------------------------|---------------------------------|
 |-----------------------|---------------------------|-18-------18-------(18)----------|
 |-15-14-----------------|-14----13----12----11------|------/18------------------------|
 |-----------------14-15-|----16----15----14----13---|---------------------------------|
 |-----------14-15-------|---------------------------|---------------------------------|
 |-------0-0-------------|---------------------------|---------------------------------|

 


 |


 

 
 |---------| PM| PM| PM------------| PM| PM| PM-| PM|
 |-----------------------|---------------------------|---------------------------------|
 |-----------------------|---------------------------|---------------------------------|
 |-----------------------|---------------------------|--7--------7-----9--------9------|
 |------------5--------2-|--------2------------------|--x--------x-----x--------x------|
 |------------3--------0-|--------0------------------|--5--------5-----7--------7------|
 |--0--0-0-0-----0--0----|--0--0-----0--0--0--0--0-0-|----0---0----0-0-----0--0---0-0--|

 


 


 Gtr I Gtrs I, II


 ~~


 

 
 |------20------18-----20----16--------------|-------|
 |-------------------------------------------|-------|
 |-9-----------------------------------------|-------|
 |-x-----------------------------------------|-5-----|
 |-7-----------------------------------------|-3-----|
 |-------------------------------------------|-------|

 


 |


 | Gtr II


 | ~~


 

 
 |------17------15-----17----13--------------|-------|
 |-------------------------------------------|-------|
 |-9-----------------------------------------|-------|
 |-x-----------------------------------------|-------|
 |-7-----------------------------------------|-------|
 |-------------------------------------------|-------|
 PM| PM| PM------------| PM| PM
 |-------------------------------------------------------------|
 |-------------------------------------------------------------|
 |-------------------------------------------------------------|
 |---2-5-----2-----2-5-----------------5-----2--3----2----5----|
 |-2-0-3-----0-----0-3-----------------3-----0--1----0----3----|
 |-2-----0-0---0-0-----0-0-0-0-0-0-0-0---0-0-------0-----------|
 PM| PM| PM------------| PM| PM
 |---------------------------------------------------------|
 |---------------------------------------------------------|
 |---------------------------------------------------------|
 |-5-----2-----2-5-----------------5-----2--3----2---------|
 |-3-----0-----0-3-----------------3-----0--1----0----2----|
 |---0-0---0-0-----0-0-0-0-0-0-0-0---0-0-------0------2----|

 


 


 PM PM


 

 
 |-----------------------------------------------------------|
 |-------------10-9-8-9-8-9-10-8-------------9-8-7-8-7-8-9-7-|
 |-------7-----------------------------7---------------------|
 |-------x-----------------------------x---------------------|
 |-------5-----------------------------5---------------------|
 |-0-0-0----0--------------------0-0-0----0------------------|

 


 |


 | PM PM


 

 
 |-----------------------------------------------------------|
 |--------------7-6-5-6-5-6--7-5-------------6-5-4-5-4-5-6-4-|
 |-------7-----------------------------7---------------------|
 |-------x-----------------------------x---------------------|
 |-------5-----------------------------5---------------------|
 |-0-0-0----0--------------------0-0-0----0------------------|

 


 


 PM PM


 

 
 |----------------------------------------------------------|
 |-------------10-9-8-9-8-9-10-8----------------------------|
 |-------7-----------------------------7--------------------|
 |-------x-----------------------------x--------------------|
 |-------5-----------------------------5--------------------|
 |-0-0-0----0--------------------0-0-0----0-2-2-2-2-3-3-3-3-|

 


 |


 | PM PM


 

 
 |----------------------------------------------------------|
 |--------------7-6-5-6-5-6--7-5----------------------------|
 |-------7-----------------------------7--------------------|
 |-------x-----------------------------x--------------------|
 |-------5-----------------------------5--------------------|
 |-0-0-0----0--------------------0-0-0----0-2-2-2-2-3-3-3-3-|
 PM------------------------| PM PM----| PM----|
 |--------------------------------------------------------------------|
 |--------------------------------------------------------------------|
 |--------------------------------------------------------------------|
 |-7-5-----------------------------5---2-5-7-5-2----------------------|
 |-5-3-----------------------------3---0-3-5-3-0----------------------|
 |-----0-0-0-0-0-0-0-0-0-0-0-0-0-0---0-----------0-0-0-0--0-0-0-0-----|
 PM----| PM| PM PM PM PM----------------------|
 |----------------------------------|-------------------------------|
 |----------------------------------|-------------------------------|
 |----------------------------9---7-|-------------------------------|
 |--------------5-2---3-2---5-x---x-|-7-5---------------------------|
 |--------------3-0---1-0---3-7---5-|-5-3---------------------------|
 |-0-0-0-0--0-0-----0-----0-----0---|-----0-0-0-0-0-0-0-0-0-0-0-0-0-|
 PM PM----| PM----| PM| PM PM
 |----------------------------------------------------------|
 |----------------------------------------------------------|
 |-------------------------------------------------7---7----|
 |-5---2-5-7-5-2-----------------------5-2---3-2---x-2-x----|
 |-3---0-3-5-3-0-----------------------3-0---1-0---5-0-5----|
 |---0-----------0-0-0-0--0-0-0-0--0-0-----0-----0----------|


Important: The song above is NOT stored on the Chordie server. The original song is hosted at www.xguitar.com. Chordie works as a search engine and provides on-the-fly formatting. Chordie does not index songs against artists'/composers' will. To remove this song please click here.

This song is displayed as text-only. Transposing and tuning is only available for chordpro-songs.
Rate #3 of 4 versions

Login - add to songbook

SHARE PAGE  




You need to log in to post comments