Guitar Tabs, Chords and Lyrics
Server problems seems to be fixed. Chordie has been experiencing problems with songs disappearing. These issues now seems to be fixed, but still verifying the fix. If you find anything strange, please email admin@chordie.com.


In Memory   Shinedown

 
 G------5----------------5------------
 D--01-0x-03-06-066--01-0x-03-06/866--
 A--01-03-03-06-066--01-03-03-06/866--
 D--01-0--03-06-066--01-0--03-06/866--

 


 


 then ring out with


 


 [G-5-]  


 [D-5-]  


 [A-3-]  


 [D---]  


 and into...


 


 Verse:


 


 

 
 G-55555555-777/888888---55555555-777/333333---55555555-777/888888--777/888888-
 D-55555555-777/888888---55555555-777/111111---55555555-777/888888--777/888888-
 A-33333335-555/666666---33333333-555/111111---33333335-555/666666--555/666666-
 D-----------------------------------------------------------------------------

 


 


 Prechorus:


 


 

 
 G-------------

 


 D-8888-333333-


 A-8888-333333-


 D-8888-333333-


 


 Chorus:


 


 

 
 G-8----5----8----3-
 D-8----5----8----1-
 A-6----3----6----1-
 D-6----3----6----1-

 


 


 ^ can also play last chord one octave higher, sounds good with two guitars, barring with pointer and lifting ring finger occasionally adds to the sound as well


 


 Bridge:


 


 

 
 G----------------------------
 D-------------------5*5*5*5*-
 A-11-------11----------------
 D-11-0-5/3-11-0-5/3----------

 


 


 The last time is played I believe something like...


 


 

 
 G------------------------------
 D------------------------------
 A-11-------------------------0-
 D-11-0-5/3-0-5/3-0-3/1-0-3/1-0-


Important: The song above is NOT stored on the Chordie server. The original song is hosted at www.xguitar.com. Chordie works as a search engine and provides on-the-fly formatting. Chordie does not index songs against artists'/composers' will. To remove this song please click here.

This song is displayed as text-only. Transposing and tuning is only available for chordpro-songs.
Rate #1 of 1 versions

Jango Player

Login - add to songbook

SHARE PAGE  



You need to log in to post comments