Guitar Tabs, Chords and Lyrics
Major upgrade!! After one year development the new version of Chordie is now online! Please give feedback.


District   Sick of It All

 
 e---------------------------------------------------------------0-]
 B---------------------------------------------------------------0-]
 G---------------------------------------------------------------0-]
 D-----------------------------------------------------------------]
 A-2-2-2-2-5-5-5-5-3-3-3-3-2-2-2-2-2-2-2-2-5-5-5-5-3-3-3-3-2-2-2---]
 E-0-0-0-0-3-3-3-3-1-1-1-1-0-0-0-0-0-0-0-0-3-3-3-3-1-1-1-1-0-0-0---]

 


 PM (...........................................................)


 


 play 4 times


 


 pre chorus(?) riff


 

 
 e--------------
 B--------------
 G--------------
 D-2-2-2-2-xxxx- X 4
 A-2-2-2-2-xxxx-
 E-0-0-0-0-xxxx-

 


 


 then play


 

 
 e-------0-------0-------0-------0-0-
 B-------0-------0-------0-------0-0-
 G-------0-------0-------0-------0-0-
 D-----------------------------------
 A-----------------------------------
 E-----------------------------------

 


 


 then back to verse riff x 3 and a half


 


 Chorus riff (Some day a real rain is gonna come)


 

 
 e---------0------------------- e-----------
 B---------0------------------- B-----------
 G-9---9---0---9---7---7/9-9-9- G-9-9-9-9-9-
 D-9---9-------9---7---7/9-9-9- X7 D-9-9-9-9-9- once
 A-7---7-------7---5---5/7-7-7- A-7-7-7-7-7-
 E----------------------------- E-----------

 


 


 then play chrous riff through once without the open strings at the end


 then the drums come back in and the chorus riff is played 4 times followed


 the prechorus riff 4 times also.


 


 middle 8 riff (a)


 


 The Sky Will Open


 

 
 e-------------------------------------------
 B-------------------------------------------
 G-------------------------------------------
 D-2-2--2--2-----2-2--2--2-----2-2--2--2-----
 A-2-2--2--2-(5)-2-2--2--2-----2-2--2--2-----
 E-0-0--0--0-----0-0--0--0-(5)-0-0--0--0-(7)-

 


 PM (.......) (.......) (.......)


 


 We won't overlook a thing


 

 
 e--------------
 B--------------
 G--------------
 D-3/2-2-2-2-2--
 A-3/2-2-2-2-2--
 E-1/0-0-0-0-0--

 


 


 Middle 8 riff (b)


 


 Criminal


 

 
 e------------------ e------------------
 B------------------ B------------------
 G------------------ G------------------
 D-3/2-2-2-2-2--3-5- X3 D-3/2-2-2-2-2--5-5- Both sections X 4
 A-3/2-2-2-2-2--3-5- A-3/2-2-2-2-2--5-5-
 E-1/0-0-0-0-0--1-3- E-1/0-0-0-0-0--3-3-

 


 PM (.....)


 


 

 
 e------------- e-1-1-1-1-1-1-1-1-1-
 B------------- B-1-1-1-1-1-1-1-1-1-
 G-2-1-2-1----- G-2-2-2-2-2-2-2-2-2-
 D-3-2-3-2-xxx- X3 D-3-3-3-3-3-3-3-3-3-
 A-3-2-3-2-xxx- A-3-3-3-3-3-3-3-3-3-
 E-1-0-1-0-xxx- E-1-1-1-1-1-1-1-1-1-

 


 


 Play Chorus riffs


 


 Outro


 

 
 e-----------------------------------------------------------------
 B-----------------------------------------------------------------
 G-----------------------------------------------------------------
 D-----------------------------------------------------------------
 A-2-2-2-2-5-5-5-5-3-3-3-3-2-2-2-2-2-2-2-2-5-5-5-5-3-3-3-3-2-2-2-2- X 2
 E-0-0-0-0-3-3-3-3-1-1-1-1-0-0-0-0-0-0-0-0-3-3-3-3-1-1-1-1-0-0-0-0-
 e-----------------------------------------------------------------
 B-----------------------------------------------------------------
 G----------------------------------------------------------------- X 1 and 7 eigths
 D----------------------------------------------------------------- i.e. miss off last
 A-2-2-2-2-5-5-5-5-3-3-3-3-2-2-2-2-2-2-2-2-5-5-5-5-3-3-3-3-2-2-2-2- four notes
 E-----------------------------------------------------------------


Important: The song above is NOT stored on the Chordie server. The original song is hosted at www.xguitar.com. Chordie works as a search engine and provides on-the-fly formatting. Chordie does not index songs against artists'/composers' will. To remove this song please click here.

This song is displayed as text-only. Transposing and tuning is only available for chordpro-songs.
Rate #1 of 2 versions

Jango Player

Login - add to songbook

SHARE PAGE  



You need to log in to post comments