Guitar Tabs, Chords and Lyrics
Server problems seems to be fixed. Chordie has been experiencing problems with songs disappearing. These issues now seems to be fixed, but still verifying the fix. If you find anything strange, please email admin@chordie.com.


The Boxer  Simon & Garfunkel

Tune all strings down one half step.
(Eb Ab Db Gb Bb eb)
[C]  
 
 |--3-0----0-----0---|----0-------------|------------------|------------------|
 |------3----3-----3-|------3---1-----1-|----1-------1-----|------------------|
 |-------------3-----|--0-----0---3-0---|--------0-------0-|---------%--------|
 |-------------------|------------------|------2-------2---|------------------|
 |-------------------|------------------|--3---------------|------------------|
 |-------------------|------------------|----------3-------|------------------|

1 . 2 . 3 . 4 . 1 . 2 . 3 . 4 . 1 . 2 . 3 . 4 . 1 . 2 . 3 . 4 .
[Am]  
 
 |------------------|------------------|------------------|------------------|
 |----1-----------1-|----1-----------1-|----1-------1-----|----1-------1-----|
 |--------0-----0---|--------0-----0---|--------0-------0-|--------2---------|
 |------2---0v2-----|------2---0v2-----|------2-------0---|------2-------2---|
 |--3---------------|--3---------------|--3-------2-------|--0-------0-------|
 |------------------|------------------|------------------|------------------|

1 . 2 . 3 . 4 . 1 . 2 . 3 . 4 . 1 . 2 . 3 . 4 . 1 . 2 . 3 . 4 .
I am j[B]ust a poor boy ...[B]
[G] [G7] [G6]  
 
 |--------3---------|--3-----------0---|--1---------------|--0---------0-----|
 |--0---------0-----|--------0---------|--------0 ^1---3-|--------0---------|
 |----------------0-|------------0-----|------------------|----------------0-|
 |------0-------0---|------0-------0---|------0-------0---|------0-------0---|
 |------------------|------------------|------------------|------------------|
 |--3-------3-------|--3-------3-------|--3-------3-------|--3-------3-------|

1 . 2 . 3 . 4 . 1 . 2 . 3 . 4 . 1 . 2 . 3 . 4 . 1 . 2 . 3 . 4 .
squandered my resistance f...[B]
[C] [Am]  
 
 |------------------|------------------|------------------|------------------|
 |----1-------1-----|------------------|----1-------1-----|----1------1------|
 |--------0-------0-|---------%--------|--------0-------0-|--------2------0--|
 |------2-------2---|------------------|------2-------0---|------2------2----|
 |--3---------------|------------------|--3-------2-------|--0-------0-------|
 |----------3-------|------------------|------------------|------------------|

1 . 2 . 3 . 4 . 1 . 2 . 3 . 4 . 1 . 2 . 3 . 4 . 1 . 2 . 3 . 4 .
promises.- ...
[G] [F/C] [C]  
 
 |------------------|------------------|------------------|------0---x-------|
 |----0-------0-----|----1-------1-----|----1-------1-----|------1---x-1-----|
 |--------0-------0-|--------2-------2-|--------2-------0-|------0---x-----0-|
 |------0-------0---|------3-------3---|------3-------3---|--------------2---|
 |------------------|--3-------3-------|--3-------3-------|--3---------------|
 |--3-------3-------|------------------|------------------|------------------|

1 . 2 . 3 . 4 . 1 . 2 . 3 . 4 . 1 . 2 . 3 . 4 . 1 . 2 . 3 . 4 .
- hears what he wants to ....
[G] [G7] [C]  
 
 |------------------|------------------|------------------|------------------|
 |----0-------0-----|------------------|----0-------0---0 |----1-------1-----|
 |--------0-------0-|--------%---------|--------0---------|--------0-------0-|
 |------0-------0---|------------------|------3---2---0---|------2-------2---|
 |------------------|------------------|------------------|--3---------------|
 |--3-------3-------|------------------|--3---------------|----------3-------|

1 . 2 . 3 . 4 . 1 . 2 . 3 . 4 . 1 . 2 . 3 . 4 . 1 . 2 . 3 . 4 .
____________________ hmm...
 
 |------------------|------------------|------------------|
 |------------------|------------------|------------------|
 |--------%---------|--------%---------|--------%---------|
 |------------------|------------------|------------------|
 |------------------|------------------|------------------|
 |------------------|------------------|------------------|

1 . 2 . 3 . 4 . 1 . 2 . 3 . 4 . 1 . 2 . 3 . 4 .
hmm._________________
[Am]  
 
 |------------------|------------------|------------------|------------------|
 |----1-----------1-|----1-----------1-|----1-------1-----|----1-------1-----|
 |--------0-----0---|--------0-----0---|--------0-------0-|--------2---------|
 |------2---0v2-----|------2---0v2-----|------2-------0---|------2-------2---|
 |--3---------------|--3---------------|--3-------2-------|--0-------0-------|
 |------------------|------------------|------------------|------------------|

1 . 2 . 3 . 4 . 1 . 2 . 3 . 4 . 1 . 2 . 3 . 4 . 1 . 2 . 3 . 4 .
left my ho[B]me and my family [B] I was ...
[G] [G7] [G6]  
 
 |--------3---------|--3-----------0---|--1---------------|--0---------0-----|
 |--0---------0-----|--------0---------|--------0 ^1---3-|--------0---------|
 |----------------0-|------------0-----|------------------|----------------0-|
 |------0-------0---|------0-------0---|------0-------0---|------0-------0---|
 |------------------|------------------|------------------|------------------|
 |--3-------3-------|--3-------3-------|--3-------3-------|--3-------3-------|

1 . 2 . 3 . 4 . 1 . 2 . 3 . 4 . 1 . 2 . 3 . 4 . 1 . 2 . 3 . 4 .
com-pany of strangers, in ...[B]
[C] [Am]  
 
 |------------------|------------------|------------------|------------------|
 |----1-------1-----|------------------|----1-------1-----|----1------1------|
 |--------0-------0-|---------%--------|--------0-------0-|--------2------0--|
 |------2-------2---|------------------|------2-------0---|------2------2----|
 |--3---------------|------------------|--3-------2-------|--0-------0-------|
 |----------3-------|------------------|------------------|------------------|

1 . 2 . 3 . 4 . 1 . 2 . 3 . 4 . 1 . 2 . 3 . 4 . 1 . 2 . 3 . 4 .
runnin' scared.____________ ...
[G] [F/C] [C]  
 
 |------------------|------------------|--1---------------|--0-----3---------|
 |----0-------0-----|----1-------1-----|--------1---------|----0-------0-----|
 |--------0-------0-|--------2-------2-|------------2-----|------0-------0---|
 |------0-------0---|------3-------3---|------3-------3---|------------------|
 |------------------|--3-------3-------|--3-------3-------|--3---------------|
 |--3-------3-------|------------------|------------------|----------3-------|

1 . 2 . 3 . 4 . 1 . 2 . 3 . 4 . 1 . 2 . 3 . 4 . 1 . 2 . 3 . 4 .
the poorer quarters ...
[G] [F/C] [C]  
 
 |--------3---------|------------------|------------------|------0-----------|
 |--0---------0-----|----1-------1-----|----1-------1-----|------1-------x---|
 |----0-----------0-|--------2---------|--------0-------0-|------0-------x---|
 |------0-------0---|------3-------3---|------2-------2---|--------------x---|
 |------------------|--3-------3-------|--3---------------|--3-------3-------|
 |--3-------3-------|------------------|----------3-------|------------------|

1 . 2 . 3 . 4 . 1 . 2 . 3 . 4 . 1 . 2 . 3 . 4 . 1 . 2 . 3 . 4 .
the places on- ly ...
S/S
[Am] [Em]  
 
 |----0-------0-----|----0-------0-----|------------------|------------------|
 |--------1-------1-|--------1-------1-|----0-------0-----|----0-------0-----|
 |------2-------2---|------2-------2---|--------0-------0-|--------0---------|
 |----------2-------|----------2-------|------2-------2---|------2-------2---|
 |--0---------------|--0---------------|----------2-------|------------------|
 |------------------|------------------|--0---------------|--0-------0-------|

1 . 2 . 3 . 4 . 1 . 2 . 3 . 4 . 1 . 2 . 3 . 4 . 1 . 2 . 3 . 4 .
lie la lie__ ...
[Am] [G]  
 
 |------------------|------------------|------------------|------------------|
 |----1-------1-----|----1-------1-----|----0-------0-----|----0-------0---0-|
 |--------2-------2-|--------2---------|--------0-------0-|--------0---------|
 |------2-------2---|------2-------2---|------0-------0---|------0-----------|
 |--0---------------|--0-------0-------|------------------|--2-------0---2---|
 |----------0-------|------------------|--3-------3-------|------------------|

1 . 2 . 3 . 4 . 1 . 2 . 3 . 4 . 1 . 2 . 3 . 4 . 1 . 2 . 3 . 4 .
lie la lie____ lie ...
C @2nd time to
CODA
 
 |------------------|------------------|------------------|------------------|
 |----1-------1-----|----1-------1-----|------------------|------------------|
 |--------0-------0-|--------0-------0-|---------%--------|---------%--------|
 |------2-------2---|------2-------2---|------------------|------------------|
 |--3---------------|--3---------------|------------------|------------------|
 |----------3-------|----------3-------|------------------|------------------|

1 . 2 . 3 . 4 . 1 . 2 . 3 . 4 . 1 . 2 . 3 . 4 . 1 . 2 . 3 . 4 .
lie. Asking
on-
Asking on[C]ly ...
I come ...
[Am]but I get ...[G]
just a [G7]come on ...[G6] [C]
I do ..[Am].
there were ti[G]mes ...[F/C]
I took some ...[C]
La la l[G]a la ...
Instrumental[G7] verse[C]
[C] [G/B] [Am]  
 
 |--0---------------|--3---------------|------------------|--0---------------|
 |------------1-----|------------1-----|--1-------3-------|----1-------1-----|
 |--------0---------|--------0-------0-|--------0-------0-|--------2---------|
 |------2-------2---|------2-------2---|------2-------0---|------2-------2---|
 |--3---------------|--3---------------|--3-------2-------|--0-------0-------|
 |----------3-------|----------3-------|------------------|------------------|

1 . 2 . 3 . 4 . 1 . 2 . 3 . 4 . 1 . 2 . 3 . 4 . 1 . 2 . 3 . 4 .
[G] [G7]  
 
 |------------------|--------------3---|------------------|------------1-----|
 |--3---------3-----|------------------|------------0-----|----0-------------|
 |----0---0-------0-|----0---0-------0-|----0---0-------0-|--------0---------|
 |------0-------0---|------0-------0---|------0-------0---|------0-------0---|
 |------------------|------------------|------------------|------------------|
 |--3-------3-------|--3-------3-------|--3-------3-------|--3-------3-------|

1 . 2 . 3 . 4 . 1 . 2 . 3 . 4 . 1 . 2 . 3 . 4 . 1 . 2 . 3 . 4 .
C Am(V)
 
 |--0-------3-------|--8---------------|--0-------3-------|--5---------------|
 |------1-------1---|--------------8---|------------------|----5-------5-----|
 |------------------|------0---------0-|--------0-------0-|--------5---------|
 |------2-------2---|------------------|------2-------0---|------7-------7---|
 |--3---------------|------------------|--3-------2-------|--0-------0-------|
 |----------3-------|--8-------8-------|------------------|------------------|

1 . 2 . 3 . 4 . 1 . 2 . 3 . 4 . 1 . 2 . 3 . 4 . 1 . 2 . 3 . 4 .
[G] [F/C] [C] [G/B] [Am]  
 
 |--3---------------|--1---------------|------------------|------0-----------|
 |----0-------0-----|----1-------1-----|--------1---------|----------3---1---|
 |--------0---------|--------2---------|--0^2-------2---0-|-(0)--------------|
 |------0-------0---|------3-------3---|------3-------3---|------------------|
 |------------------|--3-------3-------|--3-------3-------|--3---3---2---0---|
 |--3-------3-------|------------------|------------------|------------------|

1 . 2 . 3 . 4 . 1 . 2 . 3 . 4 . 1 . 2 . 3 . 4 . 1 . 2 . 3 . 4 .
[B] 
G F/C C S/S
 
 |--------3---------|--------1---------|------------------|------0-----------|
 |--3---------------|--1---------1-----|--1-----1---1-----|------1-----------|
 |----0-------0-----|----2-------------|----0-----------0-|------0---0-----0-|
 |------0-------0---|------3-------3---|------2-------2---|--------------2---|
 |------------------|--3-------3-------|--3---------------|--3---------------|
 |--3-------3-------|------------------|----------3-------|------------------|

1 . 2 . 3 . 4 . 1 . 2 . 3 . 4 . 1 . 2 . 3 . 4 . 1 . 2 . 3 . 4 .
@CODA
[C]  
 
 |------------------|------------------|------------------|------------------|
 |----1-------1-----|----1-------1-----|----1-------1-----|----1-------1-----|
 |--------0-------0-|--------0-------0-|--------0-------0-|--------0-------0-|
 |------2-------2---|------2-------2---|------2-------2---|------2-------2---|
 |--3---------------|--3---------------|--3---------------|--3---------------|
 |----------3-------|----------3-------|----------3-------|----------3-------|

1 . 2 . 3 . 4 . 1 . 2 . 3 . 4 . 1 . 2 . 3 . 4 . 1 . 2 . 3 . 4 .
And I'm laying out_ ...
[Am]gone, ...[G]
where the [G7]New York City ..[G6].[C]
[Em] [Am]  
 
 |------------------|--0---------------|------------------|--0---------------|
 |--0-----0---------|----0---0---------|--1-----1---------|----1---1---------|
 |----0-------0-----|------0-----0-----|----2-------2-----|------2-----2-----|
 |------2-------2---|--------------2---|------2-------2---|--------------2---|
 |------------------|------------------|--0-------0-------|--0-------0-------|
 |--0-------0-------|--0-------0-------|------------------|------------------|

1 . 2 . 3 . 4 . 1 . 2 . 3 . 4 . 1 . 2 . 3 . 4 . 1 . 2 . 3 . 4 .
leading me, ...
[G] [G7] [C]  
 
 |------------------|------------------|------------------|------------------|
 |----0-------0-----|----0-------0-----|----0-------0---0-|----1-------1-----|
 |--------0-------0-|--------0-------0-|--------0---------|--------0-------0-|
 |------0-------0---|------0-------0---|------3---2---0---|------2-------2---|
 |------------------|------------------|------------------|--3---------------|
 |--3-------3-------|--3-------3-------|--3---------------|----------3-------|

1 . 2 . 3 . 4 . 1 . 2 . 3 . 4 . 1 . 2 . 3 . 4 . 1 . 2 . 3 . 4 .
 
 |------------------|------------------|------------------|------------------|
 |----1-------1-----|----1-------1-----|----1-------1-----|----1-------1-----|
 |--------0-------0-|--------0-------0-|--------0-------0-|--------0-------0-|
 |------2-------2---|------2-------2---|------2-------2---|------2-------2---|
 |--3---------------|--3---------------|--3---------------|--3---------------|
 |----------3-------|----------3-------|----------3-------|----------3-------|

1 . 2 . 3 . 4 . 1 . 2 . 3 . 4 . 1 . 2 . 3 . 4 . 1 . 2 . 3 . 4 .
In the ...
[Am] [G]  
 
 |------------------|------------------|------------------|------------------|
 |----1-------1-----|----1-------1-----|----1-------1-----|----0-------0-----|
 |--------0-------0-|--------0-------0-|--------2---------|--------0-------0-|
 |------2-------2---|------2-------2---|------2-------2---|------0-------0---|
 |--3---------------|--3---------------|--0-------0-------|------------------|
 |----------3-------|----------3-------|------------------|--3-------3-------|

1 . 2 . 3 . 4 . 1 . 2 . 3 . 4 . 1 . 2 . 3 . 4 . 1 . 2 . 3 . 4 .
er and a fight- er by ...
[C]  
 
 |------------------|------------------|------------------|------------------|
 |----0-------0-----|----0-------0-----|----0-------0-----|----1-------1-----|
 |--------0-------0-|--------0-------0-|--------0-------0-|--------0-------0-|
 |------0-------0---|------0-------0---|------0-------0---|------2-------2---|
 |------------------|------------------|------------------|--3---------------|
 |--3-------3-------|--3-------3-------|--3-------3-------|----------3-------|

1 . 2 . 3 . 4 . 1 . 2 . 3 . 4 . 1 . 2 . 3 . 4 . 1 . 2 . 3 . 4 .
ers of every glove ...
[G/B] [Am] [G]  
 
 |------------------|------------------|------------------|------------------|
 |----1-------1-----|----1-------3-----|----1-------1-----|----0-------0-----|
 |--------0-------0-|--------0-------0-|--------2---------|--------0-------0-|
 |------2-------2---|------2-------0---|------2-------2---|------0-------0---|
 |--3---------------|--3-------2-------|--0-------0-------|------------------|
 |----------3-------|------------------|------------------|--3-------3-------|

1 . 2 . 3 . 4 . 1 . 2 . 3 . 4 . 1 . 2 . 3 . 4 . 1 . 2 . 3 . 4 .
cried out in his anger ...
[F/C] [C] [G/B] [Am] [G]  
 
 |------------------|------------------|------0-----------|------------------|
 |----1-------1-----|----1-------1-----|----------3---1---|----0-------0-----|
 |--------2-------2-|--------2---------|--0---------------|--------0-------0-|
 |------3-------3---|------3-------3---|------------------|------0-------0---|
 |--3-------3-------|--3-------3-------|--3---3---2---0---|------------------|
 |------------------|------------------|------------------|--3-------3-------|

1 . 2 . 3 . 4 . 1 . 2 . 3 . 4 . 1 . 2 . 3 . 4 . 1 . 2 . 3 . 4 .
leaving but the fight- er ...
[F/C] [C] [Am]  
 
 |------------------|------------------|------------------|----0-------0-----|
 |----1-------1-----|----1-------1-----|----1-------1-----|o-------1-------1-|
 |--------2-------2-|--------0-------0-|--------0-------0-|------2-------2---|
 |------3-------3---|------2-------2---|------2-------2---|----------2-------|
 |--3-------3-------|--3---------------|--3---------------|o-0---------------|
 |------------------|----------3-------|----------3-------|------------------|

1 . 2 . 3 . 4 . 1 . 2 . 3 . 4 . 1 . 2 . 3 . 4 . 1 . 2 . 3 . 4 .
Lie la lie.___
[Em] [Am]  
 
 |----0-------0-----|------------------|------------------|------------------|
 |--------1-------1-|----0-------0-----|----0-------0-----|----1-------1-----|
 |------2-------2---|--------0-------0-|--------0---------|--------2-------2-|
 |----------2-------|------2-------2---|------2-------2---|------2-------2---|
 |--0---------------|----------2-------|------------------|--0---------------|
 |------------------|--0---------------|--0-------0-------|----------0-------|

1 . 2 . 3 . 4 . 1 . 2 . 3 . 4 . 1 . 2 . 3 . 4 . 1 . 2 . 3 . 4 .
G Play 8 times C
 
 |------------------|------------------|------------------|------------------|
 |----1-------1-----|----0-------0-----|----0-------0---0o|----1-----------1-|
 |--------2---------|--------0-------0-|--------0---------|--------0-----0---|
 |------2-------2---|------0-------0---|------0-----------|------2---0v2-----|
 |--0-------0-------|------------------|--2-------0---2--o|--3---------------|
 |------------------|--3-------3-------|------------------|------------------|

1 . 2 . 3 . 4 . 1 . 2 . 3 . 4 . 1 . 2 . 3 . 4 . 1 . 2 . 3 . 4 .
[B] 
[G/B] [Am] [G]  
 
 |------------------|------------------|------------------|--------3---------|
 |----1---1-------1-|----1-------1-----|----1-------1-----|--------0---------|
 |------0-------0---|--------0-------0-|--------2---------|----0-------0-----|
 |----------0v2-----|------2-------0---|------2-------2---|------0-------0---|
 |--3---------------|--3-------2-------|--0-------0-------|------------------|
 |------------------|------------------|------------------|--3-------3-------|

1 . 2 . 3 . 4 . 1 . 2 . 3 . 4 . 1 . 2 . 3 . 4 . 1 . 2 . 3 . 4 .
[C]  
 
 |------------------|------------------|------------------|------------------|
 |--0-----0---------|--0-----0---------|--0-----0---------|----1-------1-----|
 |----0-------0-----|----0-------0-----|----0-------0-----|--------0-------0-|
 |------0-------0---|------0-------0---|------0-------0---|------2-------2---|
 |------------------|------------------|------------------|--3---------------|
 |--3-------3-------|--3-------3-------|--3-------3-------|----------3-------|

1 . 2 . 3 . 4 . 1 . 2 . 3 . 4 . 1 . 2 . 3 . 4 . 1 . 2 . 3 . 4 .
[G/B] [Am] [G]  
 
 |------------------|------------------|------------------|------------------|
 |----1-------1-----|----1-------------|----1-------1-----|--------0---------|
 |--------0-------0-|--------0-------0-|--------2---------|----0-------0-----|
 |------2-------2---|------2-------0---|------2-------2---|------0-------0---|
 |--3---------------|--3-------0v2-----|--0-------0-------|------------------|
 |----------3-------|------------------|------------------|--3-------3-------|

1 . 2 . 3 . 4 . 1 . 2 . 3 . 4 . 1 . 2 . 3 . 4 . 1 . 2 . 3 . 4 .
[B]  
[F/C] [C] [G]  
 
 |------------------|------------------|------0-----------|--------3---------|
 |--------1---------|--------1---------|----------3---1---|--0---------------|
 |----2-------2-----|--0^2-------2---0-|-(0)--------------|----0-------0-----|
 |------3-------3---|------3-------3---|------------------|------0-------0---|
 |--3-------3-------|--3-------3-------|--3---3---2---0---|------------------|
 |------------------|------------------|------------------|--3-------3-------|

1 . 2 . 3 . 4 . 1 . 2 . 3 . 4 . 1 . 2 . 3 . 4 . 1 . 2 . 3 . 4 .
[B]  
[F/C] [C]  
 
 |--------1---------|------------------|----------0-------|------------------|
 |------------------|--------1---------|--1-------1-------|------------------|
 |--0^2-------2-----|----0-------0---0-|----------0-------|------------------|
 |------3-------3---|------2-------2---|----------2-------|------------------|
 |--3-------3-------|--3---------------|--3-------3-------|------------------|
 |------------------|----------3-------|------3-----------|------------------|

1 . 2 . 3 . 4 . 1 . 2 . 3 . 4 . 1 . 2 . 3 . 4 . 1 . 2 . 3 . 4 .

Important: The song above is NOT stored on the Chordie server. The original song is hosted at www.xguitar.com. Chordie works as a search engine and provides on-the-fly formatting. Chordie does not index songs against artists'/composers' will. To remove this song please click here.

Text color:
Chord color:
Chord grids: 
Font size:    
Page size: 

Am B C Em F/C G G/B G6 G7
Rate #2 of 16 versions

Jango Player

Login - add to songbook

SHARE PAGE  




You need to log in to post comments