Guitar Tabs, Chords and Lyrics
Major upgrade!! After one year development the new version of Chordie is now online! Please give feedback.


Nine While Nine   The Sisters of Mercy

 
 e|---------------------------------|----------------------------------
 B|---------------------------------|----------------------------------
 G|--2-3-2-----2-----0--------------|-2-3-2-----2-----0--------0-------
 D|---------0----0-3---3-3-3s5-5-5--|--------0----0-3---3-2--2---2-----
 A|---------------------------------|----------------------------------
 E|---------------------------------|----------------------------------

 


 


 Riff 2:


 

 
 e|-----------
 B|-----------
 G|-----------
 D|--2-3-2-0--
 A|-----------
 E|-----------

 


 


 Riff 3:


 [(a)] [(b)]  

 
 e|-------------------------- e|--------------------------
 B|-------------------------- B|--------------------------
 G|-2----2-----0------------- G|-2----2-------------------
 D|--0--0-----------2-3-2-0-- D|--0--0------2----2-3-2-0--
 A|-------3---3-3------------ A|-------3---3-3------------
 E|-------------------------- E|--------------------------

 


 


 (c)


 

 
 e|----------
 B|----------
 G|-2----2---
 D|--0--0----
 A|-------3--
 E|----------

 


 


 Riff 4:


 


 

 
 e|--------0-0---------------------
 B|-3--3-3-----3-1--1-1-1-----1-1--
 G|-----------------------2-2------
 D|--------------------------------
 A|--------------------------------
 E|--------------------------------

 


 


 Riff 5:


 


 

 
 e|--------0-0------
 B|-3--3-3-----3-1--
 G|-----------------
 D|-----------------
 A|-----------------
 E|-----------------

 


 


 Riff 6:


 


 

 
 e|-----------------------------------------------
 B|-----------------------------------------------
 G|--2-3-2----------------------------------------
 D|---------2-2-0-0-------------------------------
 A|-----------------3-3-2-2-0---0--0-0-0000...----
 E|-----------------------------------------------


Important: The song above is NOT stored on the Chordie server. The original song is hosted at www.xguitar.com. Chordie works as a search engine and provides on-the-fly formatting. Chordie does not index songs against artists'/composers' will. To remove this song please click here.

This song is displayed as text-only. Transposing and tuning is only available for chordpro-songs.
Rate #3 of 8 versions

Login - add to songbook

SHARE PAGE  




You need to log in to post comments