Guitar Tabs, Chords and Lyrics
Server problems seems to be fixed. Chordie has been experiencing problems with songs disappearing. These issues now seems to be fixed, but still verifying the fix. If you find anything strange, please email admin@chordie.com.


Shame  The Smashing Pumpkins

Song: Shame
Release: Adore
Artist: The Smashing Pumpkins
Authors: 1. Michael Ries <zero69mr@aol.com>
2. Craig Newnes <cnewnes@jetstream.net>
3. Ben <ramsey@tusco.net>
Tuning: Eb-Ab-Db-F-Bb-Eb
For this song tune your guitar a half step down but then tune the
G string another half step down so it goes like this.Eb-Ab-Db-F-Bb-Eb
Fill 1
 
 |------------------------------
 |--------------------------0---
 |----0----1--0----0--3---------
 |------------------------------
 |-0----0-------2---------------
 |------------------------------

Fill 2
 
 |------------------------------
 |---------2------------0-------
 |---0-1-------0--3-------------
 |------------------------------
 |-0---------2------------------
 |------------------------------

INTRO
Fill 1x7
VERSE-w/fill 1
you're gonna walk on home
you're gonna walk alone
you're goona see this through
don't let them get to you
CHORUS-w/fill 2
sh sh sh sh sh shame
sh sh sh sh sh shame
sh sh sh sh sh shame
sh sh sh sh sh shame
VERSE-w/fill 1
love is good and love is kind
love is drunk and love is blind
love is good and love is mine
love is drunk all the time
CHORUS-w/fill 2
sh sh sh sh sh shame
sh sh sh sh sh shame
sh sh sh sh sh shame
sh sh sh sh sh shame
VERSE-w/fill 1(this time there is a different guitar with a weird effect)
you're gonna walk on home
you're gonna walk alone
you're gonna walk so far
you're gonna wonder who you are
CHORUS-w/fill 2
sh sh sh sh sh shame
sh sh sh sh sh shame
sh sh sh sh sh shame
sh sh sh sh sh shame
Shame
Shame
VERSE-w/fill 1
love is good and love is kind
love is good and love is blind
love is good and love is mine
love is good all the time
fill 1x7
OUTRO-w/fill 1
hello goodbye you know you made us cry
hello goodbye you know you made us cry
hello goodbye you know you made us cry
hello goodbye you know you made us cry
hello goodbye you know you made us cry
hello goodbye you know you made us cry
hello goodbye you know you made us cry
hello goodbye you know you made us cry
PLEASE send corrections,comments or questions to zero69mr@aol.com
**********************************************************************
version 2
 
 ---------

Transcribed by Craig Newnes
Tune Down 1/2 Step and grop G string 1 semitone: Eb Ab Db F Bb Eb
Chord Fingerings:
E| [A7]0 [Bm7] 2 [F#5]0 [Esus2]2
B| 2 0 2 0
G| 1 3 0 0
D| 2 4 4 2
A| 0 (2) 4 2
E| x x (2) 0
Fig1 (main progression, varies slightly)
[A7] [Bm7]  
 
 |-------------------|
 |----------------0--|
 |---0-1-0----0-3----|
 |-------------------|
 |-0--------2--------|
 |-------------------|

Note: chords are implied only as there is no actual rhythm guitar playing the changes
|A7 |Bm7 |A7 |Bm7 |
|A7 |Bm7 |A7 |Bm7 |
|A7 |Bm7 |A7 |Bm7 |
|A7 |
[Bm7]you're gonna walk on [A7]home
[Bm7]you're gonna walk [A7]alone
[Bm7]you're gonna see this [A7]through
[Bm7]don't let them get to [A7]you
[Bm7]sh sh sh sh sh [A7]shame
[Bm7]sh sh sh sh sh [F#m7]shame
[Esus2]sh sh sh sh sh [F#m7]shame[Esus2]
|A7 |Bm7 |
|A7 |
[Bm7]love is good and love is [A7]kind
[Bm7]love is drunk and love is [A7]blind
[Bm7]love is good and love is [A7]mine
[Bm7]love is drunk all the [A7]time
[Bm7]sh sh sh sh sh [A7]shame
[Bm7]sh sh sh sh sh [F#m7]shame
[Esus2]sh sh sh sh sh [F#m7]shame
[Esus2]sh sh sh sh sh [F#m7]shame[Esus2] [F#m7] [Esus2]
|A7 |A7 |
|A7 |Bm7 |
|A7 |
[Bm7]you're gonna walk on [A7]home
[Bm7]you're gonna walk [A7]alone
[Bm7]you're gonna walk so [A7]far
[Bm7]you're gonna wonder who you [A7]are
[Bm7]sh sh sh sh sh [A7]shame
[Bm7]sh sh sh sh sh [A7]shame
[Bm7]sh sh sh sh sh [A7]shame
[Bm7]sh sh sh sh sh [F#7]shame[Esus2]
[F#m7]shame [Esus2] [F#m7]shame[Esus2] [F#m7] [Esus2]
|A7 |Bm7 |A7 |Bm7 |
|A7 |Bm7 |A7 |Bm7 |
|A7 |Bm7 |A7 |Bm7 |
|A7 |Bm7 |A7 |Bm7 |
|A7 |
[Bm7]love is good and love is [A7]kind
[Bm7]love is good and love is [A7]blind
[Bm7]love is good and love is [A7]mine
[Bm7]love is good all the [A7]time[Bm7]
|A7 |Bm7 |A7 |Bm7 |
|A7 |Bm7 |A7 |Bm7 |
[A7]hello goodbye you [Bm7]know you made us [A7]cry[Bm7]
[A7]hello goodbye you [Bm7]know you made us [A7]cry[Bm7]
[A7]hello goodbye you [Bm7]know you made us [A7]cry[Bm7]
[A7]hello goodbye you [Bm7]know you made us [A7]cry[Bm7]
[A7]hello goodbye you [Bm7]know you made us [A7]cry[Bm7]
[A7]hello goodbye you [Bm7]know you made us [A7]cry[Bm7]
[A7]hello goodbye you [Bm7]know you made us [A7]cry[Bm7]
**********************************************************
version 3
 
 ---------

tuned down 1/2 step
~= slide
here is the verse
 
 ---------------------------------------------------------------------
 -----------------------------------------------------0---------------
 -------------0----------------------------2--------------------------
 --2~4--------4~2----------0------------------------------------------
 -----------------------------2---------------------------------------
 ---------------------------------------------------------------------

and here is the chorus
 
 ---------------------------------------------------------------------
 -----------------2--------------------------0------------------------
 ------------0---------0-------------0---------0----------------------
 --------4------------------------0-----------------------------------
 ----4-----------------------2----------------------------------------
 ---------------------------------------------------------------------

that is about it. have fun!

Important: The song above is NOT stored on the Chordie server. The original song is hosted at www.xguitar.com. Chordie works as a search engine and provides on-the-fly formatting. Chordie does not index songs against artists'/composers' will. To remove this song please click here.

Text color:
Chord color:
Chord grids: 
Font size:    
Page size: 

A7 Bm7 Esus2 F#5 F#7 F#m7
Rate #1 of 5 versions

Jango Player

Login - add to songbook

SHARE PAGE  



You need to log in to post comments