Guitar Tabs, Chords and Lyrics
Server problems seems to be fixed. Chordie has been experiencing problems with songs disappearing. These issues now seems to be fixed, but still verifying the fix. If you find anything strange, please email admin@chordie.com.


Zero   The Smashing Pumpkins

 
 |----------------------------------------------------|
 |----------------------------------------------------|
 |-5-4-4-------------------5-5-4-4---------------------------|
 |----------------------------------------------------|
 |-3-2-2--*----*----*---*--3-3-2-2--*----*----*---*---|
 |-------2.25-2.75-3.5-4.5---------2.25-2.75-3.5-4.5--| 

 


 


 VERSE 1


 

 
 |----------------------------------------------------|
 |----------------------------------------------------|
 |-5-4-4---------5-5-4-4-------------------------------------|
 |----------------------------------------------------|
 |-3-2-2---------3-3-2-2------------------------------|
 |-------0-0-0-0---------0-0-0-0----------------------| 

 


 


 CHORUS


 

 
 |----------------------------------------------------|
 |----------------------------------------------------|
 |-----9----11-----9-----12-----9/11--7--/------------|
 |----------------------------------------------------|
 |-----7-----9-----7-----10-----7/-9--5--/------------|
 |-0-0---0-0---0-0---0-0----0-0-----------------------| 

 


 


 VERSE2 - Same as VERSE 1 but with the harmonics as well.


 


 Then main riff for a while.


 


 "Emptiness is loneliness..."


 

 
 |----------------------------------------------------|
 |----------------------------------------------------|
 |--9-9-9-----9-9-9-----------------------------------|
 |----------------------------------------------------|
 |--7-7-7-----7-7-7-----------------------------------|
 |--0-0-0-----0-0-0-----------------------------------| 

 


 


 Weird solo thingy


 


 It stops..then this pick slide thingy from about the 14th


 fret.


 

 
 |----------------------------------------------------|
 |----------------------------------------------------|
 |----------------------------------------------------|
 |--x-\-----------------------------------------------|
 |--x-\-----------------------------------------------|
 |----------------------------------------------------| 

 


 


 Main riff simile all through this bit.


 2 and 3 on the low E string every now and then.


 


 Then it goes to this


 

 
 |----------------------------------------------------|
 |----------------------------------------------------|
 |-----9-----9-----9-----9-----9/11--7--/-------------|
 |----------------------------------------------------|
 |-----7-----7-----7-----7-----7/-9--5--/-------------|
 |-0-0---0-0---0-0---0-0----0-0-----------------------| 

 


 


 That is pretty much it. Please send me comments and


 corrections. benmo@deakin.edu.au


 


 Correction on ZERO


 


 From DANNY WARREN (WARREND@IHS.ISSAQUAH.WEDNET.EDU)


 


 This sound better that what was previousely posted


 


 Harmonics...........


 

 
 e:-------------------------------|
 B:-------------------------------|
 G:-------------------------------|
 D:-------------------------------|
 A:-3\2-2-------------------------|
 E:---------3--3.75--4--4.75--5---|

 


 ^^^^^^^^^^^^^^^^^^^


 Lay your finger on the third and slide up to the fifth


 


 Song: Zero


 By: The Smashing Pumpkins


 Tab by: Carlos Bustos


 Email: cab144@mail.usask.ca


 Tuning: 1/2 step down


 Comment: ok, I went away on holliday WITH my guitar. So to pass the time


 I thought i'd tab out some songs. I beleive this is very close if


 not right. If you use this tab or have comments please email me


 as i would like to know that someone has used it.


 


 


 f = indicated where the natural harmonics are played over the acual fret.


 


 [INTRO RIFF]: 1 x's left channel, then both channels.


 

 
 ||------------------------------------------------------------------------|
 ||------------------------------------------------------------------------|
 ||---5\4--4------------------------5--5\4--4------------------------------|
 ||---x-x--x------------------------x--x-x--x------------------------------|
 ||---3\2--2-------2f---------------3--3\2--2-------2f---------------------|
 ||------------2f------1.5f--1.5f---------------2f------1.5f--1.5f--1.5f---|
 |-Natural harmonics-| |--Natural Harmonics-----|

 


 


 THEN: When singing starts.


 


 [MAIN RIFF]: Repeated.


 

 
 ||------------------------------------------------------------------------|
 ||------------------------------------------------------------------------|
 ||---5\4--4-------------------5--5\4--4-----------------------------------|
 ||---x-x--x-------------------x--x-x--x-----------------------------------|
 ||---3\2--2-------------------3--3\2--2-----------------------------------|
 ||------------0---0---0---0---------------0---0---0---0---0---------------|

 


 My reflection dirty mirrirs


 There's no connection to myself


 I'm your lover i'm your zero


 I'm the face in your dreams of glass


 


 [RIFF A] 


 

 
 ||------------------------------------------------------------------------|
 ||------------------------------------------------------------------------|
 ||---9-------11--------9--------12-------11--7----------------------------|
 ||---x--------x--------x---------x----------------------------------------|
 ||---7--------9--------7--------10--------9--5(let ring)------------------|
 ||------0--0-----0--0-----0--0------0--0----------------------------------|

 


 So save your breath


 


 [RIFF B] 


 

 
 ||------------------------------------------------------------------------|
 ||------------------------------------------------------------------------|
 ||---9-------11--------9--------12-------11--14---------------------------|
 ||---x--------x--------x---------x--------x---x---------------------------|
 ||---7--------9--------7--------10--------9--12(let ring)-----------------|
 ||------0--0-----0--0-----0--0------0--0----------------------------------|

 


 For when your really gonna need em


 


 [RIFF C] 


 

 
 ||------------------------------------------------------------------------|
 ||------------------------------------------------------------------------|
 ||---9-------11--------9--------12-------11--7----------------------------|
 ||---x--------x--------x---------x--------x--x----------------------------|
 ||---7--------9--------7--------10--------9--5(let ring)------------------|
 ||------0--0-----0--0-----0--0------0--0----------------------------------|

 


 Throw out your


 


 [RIFF D] 


 

 
 ||------------------------------------------------------------------------|
 ||------------------------------------------------------------------------|
 ||---9-------11--------9--------12-------11--7----------------------------|
 ||---x--------x--------x---------x--------x--x----------------------------|
 ||---7--------9--------7--------10--------9--5(let ring)------------------|
 ||------0--0-----0--0-----0--0------0--0----------------------------------|

 


 cares and fly_______


 


 


 Wanna go for a ride


 [INTRO RIFF]: 2 x's and then under singing.


 She's the one for me


 She's all I really need


 Cause she's the one for me


 


 


 

 
 ||------------------------------------------------------------------------|
 ||------------------------------------------------------------------------|
 ||--9--9--9------------------------------9--9--9--------------------------|
 ||--x--x--x------------------------------x--x--x--------------------------|
 ||--7--7--7------------------------------7--7--7--------------------------|
 ||------------------------------------------------------------------------|

 


 Emptiness is loneliness and loneliness is cleanliness and


 


 

 
 ||------------------------------------------------------------------------|
 ||------------------------------------------------------------------------|
 ||--9--9--9------------------------------9---9----------------------------|
 ||--x--x--x------------------------------x---x----------------------------|
 ||--7--7--7------------------------------7---7----------------------------|
 ||------------------------------------------------------------------------|

 


 cleanliness is godliness, and god is empty, just like me.


 


 [INTRO RIFF]: under crazy fill/solo.


 then


 [MAIN RIFF]: Repeated.


 

 
 ||------------------------------------------------------------------------|
 ||------------------------------------------------------------------------|
 ||---5\4--4-------------------5--5\4--4-----------------------------------|
 ||---x-x--x-------------------x--x-x--x-----------------------------------|
 ||---3\2--2-------------------3--3\2--2-----------------------------------|
 ||------------0---0---0---0---------------0---0---0---0---0---------------|

 


 Intoxicated with the madness


 I'm in love with my sadness


 Bullshit fakers enchanted kingdoms


 The fashion victoms chew their charcoal teeth


 


 [RIFF A] 


 I never let on


 [RIFF B] 


 That I was on a sinking ship


 [RIFF C] 


 I never let on


 [RIFF D] 


 That I was down


 


 [pick scrape] 


 [crazy solo] 


 


 

 
 ||------------------------------------------------------------------------|
 ||------------------------------------------------------------------------|
 ||----9--------9--------9--------9-------11--7----------------------------|
 ||----x--------x--------x--------x--------x--x----------------------------|
 ||----7--------7--------7--------7--------9--5----------------------------|
 ||-------0--0-----0--0-----0--0-----0--0----------------------------------|

 


 You blame yourslef


 For what you can't ignore [|*|]


 You blame yourself


 For wanting MORE!


 


 [|*|]: Crazy ascending fill. (approx.)


 *: Tab in brackets is trem picked 4x's


 

 
 ||------------------------------------------------------------------------|
 ||--------*----------*----------*----------*----------*----------*--------|
 ||--9/11-(11)-11/12-(12)-12/14-(14)-14/16-(16)-16/18-(18)-18/19-(19)-19/21|
 ||------------------------------------------------------------------------|
 ||------------------------------------------------------------------------|
 ||------------------------------------------------------------------------|

 


 * * * *


 

 
 ||--------------*----------*---16/18-(18)-18/19-(19)-19/21-(21)-21b(23)---|
 ||---*---17/19-(19)-19/21-(21)--------------------------use artificial----|
 ||--(21)------------------------------------------------pinch harmonics---|
 ||------------------------------------------------------to get that squeal|
 ||------------------------------------------------------at the end.-------|
 ||------------------------------------------------------------------------|


Important: The song above is NOT stored on the Chordie server. The original song is hosted at www.xguitar.com. Chordie works as a search engine and provides on-the-fly formatting. Chordie does not index songs against artists'/composers' will. To remove this song please click here.

This song is displayed as text-only. Transposing and tuning is only available for chordpro-songs.
Rate #2 of 8 versions

Jango Player

Login - add to songbook

SHARE PAGE  




You need to log in to post comments