Guitar Tabs, Chords and Lyrics
Major upgrade!! After one year development the new version of Chordie is now online! Please give feedback.


Smothered  Spineshank

This is an awesome song from the new release Self-Destructive Patterns
Tabbed By: Luke Myers
Email: hexagram__@hotmail.com
It sounds Right in this Tuning
[Bb] [F] [Bb] [Eb] [G] [C]  
Intro/Fill 1/Outro ? Every second time the riff is played do the alternate ending
 
 ------------------------------------|-----------|-------------|
 ------------------------------------|-----------|-------------|
 ------------------------------------|-----------|-------------|
 -----7-7-7-7---7-7-7-7---7-7-7-7----|---7-0-3---|---0-----3---|
 -----7-7-7-7---7-7-7-7---7-7-7-7----|---7-0-3---|---0-----3---|
 -----7-7-7-7---7-7-7-7---7-7-7-7----|---7-0-3---|---0-----3---|

Ending A Ending B
Verse Part A ? you can do a quick up down pick with this or take the easy way out and probably the correct way and fiddle with a delay/echo pedal till you get it right ? at the tart mute it and slowly release as you play.
 
 ------------------------------------------------------------
 ------------------------------------------------------------
 -----55-4-7-5-9----55-4-7-5-9-----55-4-5-4-----55-4-5-4-2---
 ---7--------------7------------5------------2---------------
 ------------------------------------------------------------
 ------------------------------------------------------------

...The black and cold reminds me of all the distance we have crossed
Verse Part B ? Just do a hell of a lot of bends here, you?ll figure it out when you listen to it
 
 ------------------------------------------------------
 ------------------------------------------------------
 -----9979-7-9979-797-55-10-5-7-5--9-5-----------------
 --------------------------------77--------------------
 ------------------------------------------------------
 ------------------------------------------------------

...But I?m not the one that seeks your protection
Chorus
 
 --------------------------------------------------------------------
 --------------------------------------------------------------------
 --------------------------------------------------------------------
 -----7-7---9---3-3---5---0-0---2---7-7---9---10-10---12----55---7---
 -----7-7-------3-3-------0-0-------7-7-------10-10---------55-------
 -----7-7-------3-3-------0-0-------7-7-------10-10---------55-------

...You push from the inside ... Smothered
Bridge
 
 ---------------------------------------------
 ---------------------------------------------
 -----7777777733330000777777777101010105555---
 -----7777777733330000777777777101010105555---
 -----7777777733330000777777777101010105555---
 -----7777777733330000777777777101010105555---

...I will never win, I will never win with you
Fill 2
 
 --------------------------------|-------------
 --------------------------------|-------------
 --------------------------------|-------------
 --00--------00------------------|--9-7-9-10---
 --00--------00------------------|--9-7-9-10---
 --00--------00------------------|--9-7-9-10--- Straight Back into Chorus Riff

...I reach you, I feel you
Song Progression
Intro x4
Verse part a x2
Verse part b x2
Chorus x2
Fill 1 x2
Verse part a x2
Verse part b x2
Chorus x2
Bridge x2
Fill 2 x2
Chorus x2
Bridge x2
Outro x2

Important: The song above is NOT stored on the Chordie server. The original song is hosted at www.xguitar.com. Chordie works as a search engine and provides on-the-fly formatting. Chordie does not index songs against artists'/composers' will. To remove this song please click here.

Text color:
Chord color:
Chord grids: 
Font size:    
Page size: 

Bb C Eb F G
Rate #5 of 7 versions

Jango Player

Login - add to songbook

SHARE PAGE  




You need to log in to post comments