Guitar Tabs, Chords and Lyrics
Major upgrade!! After one year development the new version of Chordie is now online! Please give feedback.


Pressure  Staind

Band: Staind
Song: Pressure
Album: Break The Cycle
Tab: el sancco (sancco@hotmail.com)
I know most of you people won't be able to play on such a low tuning, but you fans who
are obsessed enough can now play it like Mike Mushok does! This is all my own work, but
if you would like to post it on a personal site, just email me and i might be kind enough
to let you! This has all the riffs you need to play the song, figure out where each goes
i will leave up to you. The whole song is distorted so i didn't bother writing that next
to each part!
INTRO/FIRST POST-CHORUS
 
 Bb|-----------------------------------------------------------------|
 Gb|-----------------------------------------------------------------|
 Db|----------6---------------6---------------6----------------------|
 Ab|------------------------------6---------------------------7---6--|
 Db|--6---6-------6-6---6-6-6-----7---6---6-------6-6---6-6-6-----7--|
 Ab|--4---4-------4-4---4-4-4-----5---4---4-------4-4---4-4-4-----5--|\

PLAY x2
 
 Bb|-----------------------------------------------------------------|/
 Gb|-----------------------------------------------------------------|
 Db|----------6---------------6---------------6----------------------|
 Ab|------------------------------6---------------------------6------|
 Db|--6---6-------6-6---6-6-6-----7---6---6-------6-6---6-6-6-7------|
 Ab|--4---4-------4-4---4-4-4-----5---4---4-------4-4---4-4-4--------|

VERSE - Phaser. Volume swells. Play twice.
 
 Bb|-------------|
 Gb|--11---------|
 Db|--14--p--13--|
 Ab|-------------|
 Db|-------------|
 Ab|-------------|

PRE-CHORUS
 
 Bb|-----------------------------------------------------------------|
 Gb|-----------------------------------------------------------------|
 Db|----------6---------------6---------------6----------------------| PLAY
 Ab|----------------------------------------------------------7------| x3
 Db|--6---6-------6-6---6-6-6-----6-6-6---6-------6-6---6-6-6-----7--|
 Ab|--4---4-------4-4---4-4-4-----4-4-4---4-------4-4---4-4-4-----5--|
 Bb|----------------------------------------------7------------------|
 Gb|----------------------------------------------8------------------|
 Db|----------6---------------6---------------6----------------------|
 Ab|----------------------------------------------6------------------|
 Db|--6---6-------6-6---6-6-6-----6-6-6---6-6-----7------------------|
 Ab|--4---4-------4-4---4-4-4-----4-4-4---4-4------------------------|

CHORUS
 
 Bb|----------------------------------------------------|
 Gb|----------------------------------------------------|
 Db|--4-----------------------4------------------5---2--| PLAY
 Ab|--4-----------2-----------4-----------2------5---2--| x2
 Db|--4-----7-----4-----------4-----7-----4------5---2--|
 Ab|--------5-----2-----------------5-----2-------------|

[F#5] [D5] [B5] [F#5] [D5] [B5] [G5] [E5] 
SECOND POST-CHORUS
 
 Bb|-----------------------------------|
 Gb|--6---6-6-6---6-6-6-6-6-6-6-6-6-6--|
 Db|--4---4-4-4---4-4-4-4-4-4-4-4-4-4--| PLAY
 Ab|--4h5-5-5-5p4-4-4-4-4-4-4-4-4-4-4--| x2
 Db|-----------------------------------|
 Ab|-----------------------------------|

BRIDGE
 
 Bb|-----------------------------------------------------------------------|
 Gb|-----------------------------------------------------------------------|
 Db|-----------------------------------------------------------------------| PLAY
 Ab|----------------------------------------------------7---7-7---7---7-0--| x4
 Db|------4---4---4-----4-4---4---4-------4---4---4---6-6---6-6---6---6-0--|
 Ab|--5-p-4---4---4-5-p-4-4---4---4p0-5-p-4---4---4---7-7---7-7---7---7----|

OUTRO
 
 Bb|-----------------------------------------------------------------|
 Gb|-----------------------------------------------------------------|
 Db|----------6---------------6---------------6----------------------|
 Ab|------------------------------6---------------------------7---6--|
 Db|--6---6-------6-6---6-6-6-----7---6---6-------6-6---6-6-6-----7--|
 Ab|--4---4-------4-4---4-4-4-----5---4---4-------4-4---4-4-4-----5--|
 Bb|-----------------------------------------------------------------|
 Gb|-----------------------------------------------------------------|
 Db|----------6---------------6---------------6----------------------|
 Ab|------------------------------6---4---4-4-----6------------------|
 Db|--6---6-------6-6---6-6-6-----7---6---6-6-----7------------------|
 Ab|--4---4-------4-4---4-4-4-----5---4---4-4------------------------|
 ---------------------------------------------

Transcribed By SANCCO (sancco@hotmail.com)
 
 ---------------------------------------------


Important: The song above is NOT stored on the Chordie server. The original song is hosted at www.xguitar.com. Chordie works as a search engine and provides on-the-fly formatting. Chordie does not index songs against artists'/composers' will. To remove this song please click here.

Text color:
Chord color:
Chord grids: 
Font size:    
Page size: 

B5 D5 E5 F#5 G5
Rate #1 of 2 versions

Jango Player

Login - add to songbook

SHARE PAGE  



You need to log in to post comments