Guitar Tabs, Chords and Lyrics
Major upgrade!! After one year development the new version of Chordie is now online! Please give feedback.


Take It   Staind

 
 D-----4-4-----4-4-----4---------4-4-----4-4---4-5-6
 A-2-2-2-2-2-2-2-2-2-3-2-----2-2-2-2-2-2-2-2-2-2-3-4
 D-2-2-----2-2-----2-3-------2-2-----2-2-----2------

 


 Verse


 

 
 D-------4--------4
 A-2-2-2-2----2-2-2
 D-2-2-2------2-2

 


 Pre-Chorus


 

 
 D-------4---4-----2
 A-2-2-2-2-0-2-2-2-2
 D-2-2-2---0---2-2--

 


 Chorus/Outro


 [D-5-9-3-1]  


 [A-5-9-3-1]  


 [D-5-9-3-1]  


 Bridge *Palm Mute* Slight


 

 
 D-0-0-0-2-0-0-0-2-0
 A-0-0-0-2-0-0-0-2-0
 D-0-0-0-2-0-0-0-2-0


Important: The song above is NOT stored on the Chordie server. The original song is hosted at www.xguitar.com. Chordie works as a search engine and provides on-the-fly formatting. Chordie does not index songs against artists'/composers' will. To remove this song please click here.

This song is displayed as text-only. Transposing and tuning is only available for chordpro-songs.
Rate #1 of 1 versions

Jango Player

Login - add to songbook

SHARE PAGE  




You need to log in to post comments