Guitar Tabs, Chords and Lyrics
Major upgrade!! After one year development the new version of Chordie is now online! Please give feedback.


Schizophrenic Conversations   Staind

 
 Eb|----------------------------------------------------------------||
 Bb|----------------------------------------------------------------||
 Gb|--------------------------------------------7-6-7---------11----||x6
 Db|--9--9---13-11-9--7--9---11/12-11-9--5--7----------7--9-----9-7-||
 Ab|--9---9-----------7---7--------------5---5---------7---7--------||
 Db|--9----9----------7----7-------------5----5--------7----7-------||

 


 


 Chorus - Clean


 

 
 Eb|-------------------------||
 Bb|-------------------------||
 Gb|--7--11-7--9--11-7--9----|| Figure out Strumming
 Db|--5--9--5--7--9--5--7----||
 Ab|--5--9--5--7--9--5--7----||
 Db|--5--9--5--7--9--5--7----||

 


 


 Solo - Distortion


 

 
 Eb|------------------------------------------------------------------||
 Bb|--12--12-12h14-12h14-14h15-14-12/-17h19-17/15-14-15-14-12/10-10/12||
 Gb|------------------------------------------------------------------||
 Db|------------------------------------------------------------------||
 Ab|------------------------------------------------------------------||
 Db|------------------------------------------------------------------||

 


 


 Riff 1 - Clean


 

 
 Eb|----------------------------------------------------------------||
 Bb|----------------------------------------------------------------||
 Gb|--------------------------------------------7-6-7---------11----||x6
 Db|--9--9---13-11-9--7--9---11/12-11-9--5--7----------7--9-----9-7-||
 Ab|--9---9-----------7---7--------------5---5---------7---7--------||
 Db|--9----9----------7----7-------------5----5--------7----7-------||

 


 


 Chorus - Clean


 

 
 Eb|-------------------------||
 Bb|-------------------------||
 Gb|--7--11-7--9--11-7--9----|| Figure out Strumming
 Db|--5--9--5--7--9--5--7----||
 Ab|--5--9--5--7--9--5--7----||
 Db|--5--9--5--7--9--5--7----||

 


 


 Bridge - Distortion


 

 
 Eb|---------------------------------[-------------------||
 Bb|--7--10/----------------10--Play-[--8----------------||
 Gb|--x---x/--6--9/--11--9---x---4x--[--x--end-with-this-||
 Db|--4---7/--x--x/---x--x---7-------[--5----------------||
 Ab|----------4--7/---9--7-----------[--^-Let-ring-then--||
 Db|---------------------------------[-------feedback----||

 


 


 Chorus - Clean


 

 
 Eb|----------------------------||
 Bb|----------------------------||
 Gb|--11-7--9--11-7--9--11-7--9-|| Figure out Strumming
 Db|--9--5--7--9--5--7--9--5--7-||
 Ab|--9--5--7--9--5--7--9--5--7-||
 Db|--9--5--7--9--5--7--9--5--7-||

 


 


 Outro - Clean


 

 
 Eb|----------------------------------------||
 Bb|----------------------------------------||
 Gb|----------------------------------------||
 Db|--9--9---13-11-9--7--9---11/12-11-9--7--||
 Ab|--9---9-----------7---7--------------5--||
 Db|--9----9----------7----7-------------5--||


Important: The song above is NOT stored on the Chordie server. The original song is hosted at www.xguitar.com. Chordie works as a search engine and provides on-the-fly formatting. Chordie does not index songs against artists'/composers' will. To remove this song please click here.

This song is displayed as text-only. Transposing and tuning is only available for chordpro-songs.
Rate #1 of 7 versions

Login - add to songbook

SHARE PAGE  




You need to log in to post comments