Guitar Tabs, Chords and Lyrics
Major upgrade!! After one year development the new version of Chordie is now online! Please give feedback.


Dakota  Stereophonics

Dakota - from Language, violence, sex, other
Tabbed by: Mark Bryce 17th April 2005
Email: Brycey81a@hotmail.com
Web: www.brycey.co.uk
The other tab wasnt 100% complete, so ive filled in the gaps, enjoy!
_____________________________________________________
Tuning: EADGBe
Legend
h - hammer on
p - pull off
/ - slide up
\ - slide Down
Guitar 1: Rhythm Guitar
Guitar 2: Lead Guitar
Guitar 3: Additional guitar parts
_____________________________________________________
Intro part 1:
Guitar 1 (w/ring modulation)
 
 e|--------------------------------------------------------------------|
 B|--------------------------------------------------------------------|
 G|--------------------------------------------------------------------|
 D|-9-9-9-9-9-9-9-9--6-6-6-6-6-6-6-6--2-2-2-2-2-2-2-2--9-9-9-9-9-9-9-9-|
 A|--------------------------------------------------------------------|
 E|--------------------------------------------------------------------|

_____________________________________________________
Intro part 2:
Guitar 1
 
 e|--------------------------------------------------------------------|
 B|----12----12----12----12----12----14----14----14----14----14----14--|
 G|-13----13----13----13----13----13----13----13----13----13----13-----|
 D|--------------------------------------------------------------------|
 A|--------------------------------------------------------------------|
 E|--------------------------------------------------------------------|
 e|--------------------------------------------------------------------|
 B|-------------------------------------12----12----12----12----12-----|
 G|----13----13----13----13----13----13----13----13----13----13----13--|
 D|-14----14----14----14----14----14-----------------------------------|
 A|--------------------------------------------------------------------|
 E|--------------------------------------------------------------------|

Guitar 2 (w/delay)
 
 e|-----12--11------------------------------------|
 B|-----------------12---------12--------12-------|
 G|--9-----------9----------9---------9-----------|
 D|-----------------------------------------------|
 A|-----------------------------------------------|
 E|-----------------------------------------------|

_____________________________________________________
Verse 1
Thinking back, thinking of you
Summer time think it was June
Yeah I think it was June
Guitar 1
 
 e|--------------------------------------------------------------------|
 B|----12----12----12----12----12----14----14----14----14----14----14--|
 G|-13----13----13----13----13----13----13----13----13----13----13-----|
 D|--------------------------------------------------------------------|
 A|--------------------------------------------------------------------|
 E|--------------------------------------------------------------------|
 e|--------------------------------------------------------------------|
 B|----------------------------------12----12----12----12----12----12--|
 G|-13----13----13----13----13----13----13----13----13----13----13-----|
 D|----14----14----14----14----14--------------------------------------|
 A|--------------------------------------------------------------------|
 E|--------------------------------------------------------------------|

Laying back head on the grass
Chewing gum, having some laughs
Yeah having some laughs
Guitar 1
 
 e|--------------------------------------------------------------------|
 B|----12----12----12----12----12----14----14----14----14----14----14--|
 G|-13----13----13----13----13----13----13----13----13----13----13-----|
 D|--------------------------------------------------------------------|
 A|--------------------------------------------------------------------|
 E|--------------------------------------------------------------------|
 e|--------------------------------------------------------------------|
 B|----------------------------------12----12----12----12----12----12--|
 G|-13----13----13----13----13----13----13----13----13----13----13-----|
 D|----14----14----14----14----14--------------------------------------|
 A|--------------------------------------------------------------------|
 E|--------------------------------------------------------------------|

Finish with:
Guitar 2
 
 e|-0-0-0-0-0-0-0-0-0-0-0-0--0-0---|
 B|--------------------------0-0---|
 G|--------------------------0-0---|
 D|--------------------------0-0---|
 A|--------------------------------|
 E|--------------------------------|

_____________________________________________________
Chrous 1
You made me feel like the one,
You made me feel like the one,
The one
Guitar 1
[A] [E] 
 
 e|--5-5-5-5-5-5-5-5-5-5-5-5-5-5-5-5---0-0-0-0-0-0-0-0-0-0-0-0-0---|
 B|--5-5-5-5-5-5-5-5-5-5-5-5-5-5-5-5---0-0-0-0-0-0-0-0-0-0-0-0-0---|
 G|--6-6-6-6-6-6-6-6-6-6-6-6-6-6-6-6---1-1-1-1-1-1-1-1-1-1-1-1-1---|
 D|--7-7-7-7-7-7-7-7-7-7-7-7-7-7-7-7---2-2-2-2-2-2-2-2-2-2-2-2-2---|
 A|--7-7-7-7-7-7-7-7-7-7-7-7-7-7-7-7---2-2-2-2-2-2-2-2-2-2-2-2-2---|
 E|--5-5-5-5-5-5-5-5-5-5-5-5-5-5-5-5---0-0-0-0-0-0-0-0-0-0-0-0-0---|

Guitar 2 (w/delay)
 
 e|--12--11-----------12--11---------------------------------------|
 B|----------12--9------------12--9----9b10r9b10r9b10r9b10r9b10r9--|
 G|----------------------------------------------------------------|
 D|----------------------------------------------------------------|
 A|----------------------------------------------------------------|
 E|----------------------------------------------------------------|

*Repeat twice*
_____________________________________________________
Verse 2
Drinking back drinking for two
Drinking with you
When drinking was new
Guitar 1
 
 e|--------------------------------------------------------------------|
 B|----12----12----12----12----12----14----14----14----14----14----14--|
 G|-13----13----13----13----13----13----13----13----13----13----13-----|
 D|--------------------------------------------------------------------|
 A|--------------------------------------------------------------------|
 E|--------------------------------------------------------------------|
 e|--------------------------------------------------------------------|
 B|----------------------------------12----12----12----12----12----12--|
 G|-13----13----13----13----13----13----13----13----13----13----13-----|
 D|----14----14----14----14----14--------------------------------------|
 A|--------------------------------------------------------------------|
 E|--------------------------------------------------------------------|

Guitar 2 (w/delay)
 
 e|-----12--11------------------------------------|
 B|-----------------12---------12--------12-------|
 G|--9-----------9----------9---------9-----------|
 D|-----------------------------------------------|
 A|-----------------------------------------------|
 E|-----------------------------------------------|

Sleeping in the back of my car
We never went far
We wouldn't need to go far
Guitar 1
 
 e|--------------------------------------------------------------------|
 B|----12----12----12----12----12----14----14----14----14----14----14--|
 G|-13----13----13----13----13----13----13----13----13----13----13-----|
 D|--------------------------------------------------------------------|
 A|--------------------------------------------------------------------|
 E|--------------------------------------------------------------------|
 e|--------------------------------------------------------------------|
 B|----------------------------------12----12----12----12----12----12--|
 G|-13----13----13----13----13----13----13----13----13----13----13-----|
 D|----14----14----14----14----14--------------------------------------|
 A|--------------------------------------------------------------------|
 E|--------------------------------------------------------------------|

Guitar 2 (w/delay)
 
 e|-----12--11------------------------------------|
 B|-----------------12---------12--------12-------|
 G|--9-----------9----------9---------9-----------|
 D|-----------------------------------------------|
 A|-----------------------------------------------|
 E|-----------------------------------------------|

Finish with:
Guitar 2
 
 e|-0-0-0-0-0-0-0-0-0-0-0-0--0-0---|
 B|--------------------------0-0---|
 G|--------------------------0-0---|
 D|--------------------------0-0---|
 A|--------------------------------|
 E|--------------------------------|

Guitar 3
 
 e|---------------------------------------------------------------|
 B|---------------------------------------------------------------|
 G|--13-13b14r13---13-13b14r13--13-13b14r13--13--13/16b17r16------|
 D|---------------------------------------------------------------|
 A|---------------------------------------------------------------|
 E|---------------------------------------------------------------|

_____________________________________________________
Chrous 2
You made me feel like the one,
You made me feel like the one,
The one
Guitar 1
[A] [E] 
 
 e|--5-5-5-5-5-5-5-5-5-5-5-5-5-5-5-5---0-0-0-0-0-0-0-0-0-0-0-0-0---|
 B|--5-5-5-5-5-5-5-5-5-5-5-5-5-5-5-5---0-0-0-0-0-0-0-0-0-0-0-0-0---|
 G|--6-6-6-6-6-6-6-6-6-6-6-6-6-6-6-6---1-1-1-1-1-1-1-1-1-1-1-1-1---|
 D|--7-7-7-7-7-7-7-7-7-7-7-7-7-7-7-7---2-2-2-2-2-2-2-2-2-2-2-2-2---|
 A|--7-7-7-7-7-7-7-7-7-7-7-7-7-7-7-7---2-2-2-2-2-2-2-2-2-2-2-2-2---|
 E|--5-5-5-5-5-5-5-5-5-5-5-5-5-5-5-5---0-0-0-0-0-0-0-0-0-0-0-0-0---|

Guitar 2 (w/delay)
 
 e|--12--11-----------12--11---------------------------------------|
 B|----------12--9------------12--9----9b10r9b10r9b10r9b10r9b10r9--|
 G|----------------------------------------------------------------|
 D|----------------------------------------------------------------|
 A|----------------------------------------------------------------|
 E|----------------------------------------------------------------|

*Repeat twice*
_____________________________________________________
Bridge 1
I don't know where we are going now
I don't know where we are going now
Guitar 1
[E] [B] [A] 
 
 e|------------------------------------5-5-5-5-5-5-5-5-5-5-5-5---|
 B|------------------------------------5-5-5-5-5-5-5-5-5-5-5-5---|
 G|--9-9-9-9-9-9-9-9--8-8-8-8-8-8-8-8--6-6-6-6-6-6-6-6-6-6-6-6---|
 D|--9-9-9-9-9-9-9-9--9-9-9-9-9-9-9-9--7-7-7-7-7-7-7-7-7-7-7-7---|
 A|--7-7-7-7-7-7-7-7--9-9-9-9-9-9-9-9--7-7-7-7-7-7-7-7-7-7-7-7---|
 E|-------------------7-7-7-7-7-7-7-7--5-5-5-5-5-5-5-5-5-5-5-5---|

Guitar 2
....(w/wah pedel).....
 
 e|--------------------------------------------------------------|
 B|--------------------------------------------------------------|
 G|--9-9-9-9-9-9-9-9--11-11-11-11-11----------9-11---------9-11--|
 D|--x-x-x-x-x-x-x-x--x--x--x--x--x------9-11---------9-11-------|
 A|--7-7-7-7-7-7-7-7--9--9--9--9--9------------------------------|
 E|--------------------------------------------------------------|

*Repeat twice*
_____________________________________________________
Verse 3
Wake up, cold coffee and juice,
Remembering you, what happened to you.
Guitar 1
 
 e|--------------------------------------------------------------------|
 B|----12----12----12----12----12----14----14----14----14----14----14--|
 G|-13----13----13----13----13----13----13----13----13----13----13-----|
 D|--------------------------------------------------------------------|
 A|--------------------------------------------------------------------|
 E|--------------------------------------------------------------------|
 e|--------------------------------------------------------------------|
 B|----------------------------------12----12----12----12----12----12--|
 G|-13----13----13----13----13----13----13----13----13----13----13-----|
 D|----14----14----14----14----14--------------------------------------|
 A|--------------------------------------------------------------------|
 E|--------------------------------------------------------------------|

I wonder if we'll meet again,
And talk about life since then,
And talk about why did it end
Guitar 1
 
 e|--------------------------------------------------------------------|
 B|----12----12----12----12----12----14----14----14----14----14----14--|
 G|-13----13----13----13----13----13----13----13----13----13----13-----|
 D|--------------------------------------------------------------------|
 A|--------------------------------------------------------------------|
 E|--------------------------------------------------------------------|
 e|--------------------------------------------------------------------|
 B|----------------------------------12----12----12----12----12----12--|
 G|-13----13----13----13----13----13----13----13----13----13----13-----|
 D|----14----14----14----14----14--------------------------------------|
 A|--------------------------------------------------------------------|
 E|--------------------------------------------------------------------|

Guitar 2 (w/delay)
 
 e|-----12--11------------------------------------|
 B|-----------------12---------12--------12-------|
 G|--9-----------9----------9---------9-----------|
 D|-----------------------------------------------|
 A|-----------------------------------------------|
 E|-----------------------------------------------|

Finish with:
Guitar 2
 
 e|-0-0-0-0-0-0-0-0-0-0-0-0--0-0---|
 B|--------------------------0-0---|
 G|--------------------------0-0---|
 D|--------------------------0-0---|
 A|--------------------------------|
 E|--------------------------------|

Guitar 3
 
 e|---------------------------------------------------------------|
 B|---------------------------------------------------------------|
 G|--13-13b14r13---13-13b14r13--13-13b14r13--13--13/16b17r16------|
 D|---------------------------------------------------------------|
 A|---------------------------------------------------------------|
 E|---------------------------------------------------------------|

_____________________________________________________
Chrous 3
You made me feel like the one,
You made me feel like the one,
The one
Guitar 1
[A] [E] 
 
 e|--5-5-5-5-5-5-5-5-5-5-5-5-5-5-5-5---0-0-0-0-0-0-0-0-0-0-0-0-0---|
 B|--5-5-5-5-5-5-5-5-5-5-5-5-5-5-5-5---0-0-0-0-0-0-0-0-0-0-0-0-0---|
 G|--6-6-6-6-6-6-6-6-6-6-6-6-6-6-6-6---1-1-1-1-1-1-1-1-1-1-1-1-1---|
 D|--7-7-7-7-7-7-7-7-7-7-7-7-7-7-7-7---2-2-2-2-2-2-2-2-2-2-2-2-2---|
 A|--7-7-7-7-7-7-7-7-7-7-7-7-7-7-7-7---2-2-2-2-2-2-2-2-2-2-2-2-2---|
 E|--5-5-5-5-5-5-5-5-5-5-5-5-5-5-5-5---0-0-0-0-0-0-0-0-0-0-0-0-0---|

Guitar 2 (w/delay)
 
 e|--12--11-----------12--11---------------------------------------|
 B|----------12--9------------12--9----9b10r9b10r9b10r9b10r9b10r9--|
 G|----------------------------------------------------------------|
 D|----------------------------------------------------------------|
 A|----------------------------------------------------------------|
 E|----------------------------------------------------------------|

*Repeat twice*
_____________________________________________________
Bridge 2
I don't know where we are going now
I don't know where we are going now
Guitar 1
[E] [B] [A] 
 
 e|------------------------------------5-5-5-5-5-5-5-5-5-5-5-5---|
 B|------------------------------------5-5-5-5-5-5-5-5-5-5-5-5---|
 G|--9-9-9-9-9-9-9-9--8-8-8-8-8-8-8-8--6-6-6-6-6-6-6-6-6-6-6-6---|
 D|--9-9-9-9-9-9-9-9--9-9-9-9-9-9-9-9--7-7-7-7-7-7-7-7-7-7-7-7---|
 A|--7-7-7-7-7-7-7-7--9-9-9-9-9-9-9-9--7-7-7-7-7-7-7-7-7-7-7-7---|
 E|-------------------7-7-7-7-7-7-7-7--5-5-5-5-5-5-5-5-5-5-5-5---|

Guitar 2
....(w/wah pedel).....
 
 e|--------------------------------------------------------------|
 B|--------------------------------------------------------------|
 G|--9-9-9-9-9-9-9-9--11-11-11-11-11----------9-11---------9-11--|
 D|--x-x-x-x-x-x-x-x--x--x--x--x--x------9-11---------9-11-------|
 A|--7-7-7-7-7-7-7-7--9--9--9--9--9------------------------------|
 E|--------------------------------------------------------------|

*Repeat twice*
_____________________________________________________
Outro part 1
So take a look at me now
So take a look at me now
So take a look at me now
So take a look at me now
Guitar 1
[E] [B] [A] 
 
 e|------------------------------------5-5-5-5-5-5-5-5-5-5-5-5---|
 B|------------------------------------5-5-5-5-5-5-5-5-5-5-5-5---|
 G|--9-9-9-9-9-9-9-9--8-8-8-8-8-8-8-8--6-6-6-6-6-6-6-6-6-6-6-6---|
 D|--9-9-9-9-9-9-9-9--9-9-9-9-9-9-9-9--7-7-7-7-7-7-7-7-7-7-7-7---|
 A|--7-7-7-7-7-7-7-7--9-9-9-9-9-9-9-9--7-7-7-7-7-7-7-7-7-7-7-7---|
 E|-------------------7-7-7-7-7-7-7-7--5-5-5-5-5-5-5-5-5-5-5-5---|

Guitar 2
 
 e|-----------------------------------------------------------------|
 B|------5-7------5-7------5-7------5-7------5-7------5-7-------5-7-|
 G|--4-6------4-6------4-6------4-6------4-6------4-6------4-6------|
 D|-----------------------------------------------------------------|
 A|-----------------------------------------------------------------|
 E|-----------------------------------------------------------------|

_____________________________________________________
Outro part 2
So take a look at me now
So take a look at me now
So take a look at me now
So take a look at me now
Guitar 1
 
 e|-----------------------------------------------------------------|
 B|-----------------------------------------------------------------|
 G|-----------------------------------------------------------------|
 D|--9-9-9-9-9-9-9-9-9-9-9-9-9-13-13-13-13-13-13-14-14-14-14-14-14--|
 A|-----------------------------------------------------------------|
 E|-----------------------------------------------------------------|

The End
By Mark Bryce

Important: The song above is NOT stored on the Chordie server. The original song is hosted at www.xguitar.com. Chordie works as a search engine and provides on-the-fly formatting. Chordie does not index songs against artists'/composers' will. To remove this song please click here.

Text color:
Chord color:
Chord grids: 
Font size:    
Page size: 

A B E
Rate #20 of 20 versions

Jango Player

Login - add to songbook

SHARE PAGE  




You need to log in to post comments