Guitar Tabs, Chords and Lyrics
Server problems seems to be fixed. Chordie has been experiencing problems with songs disappearing. These issues now seems to be fixed, but still verifying the fix. If you find anything strange, please email admin@chordie.com.


Bad Horsie   Steve Vai

 
 |---------------------------|-------------------------------|
 |---------------------------|---------------------------<5>-|
 |-----<7>-(<7>)----(<7>)----|---------------------------<5>-|
 |-----<7>-(<7>)----(<7>)----|-----x-x-----x-x-----x-x---<5>-|
 |---x-----------------------|-0-0-x-x-0-0-x-x-0-0-x-x-0-----|
 |-x-------------------------|-0-0-----0-0-----0-0-----0-----|

 


 


 [2/4] \\1.5/ /2.5____\\2.5 |


 [+E] [+E] [+E] [+E]  

 
 |------------------------------|
 |-(<5>)---(<5>)---(<5>)--(<5>)-|
 |-(<5>)---(<5>)---(<5>)--(<5>)-|
 |-(<5>)---(<5>)---(<5>)--(<5>)-|
 |------------------------------|
 |------------------------------|

 


 


 [4/4]  

 
 |--3--| |--3--|

 


 S S S S S S E S S S S E E Q E E E S S Q +Q


 

 
 |-------------x---------------|-22--22----22-22s20-20-(20)--|
 |-------------x-----------/22-|--------22----22s20-20-(20)--|
 |---------------------x-------|-----------------------------|
 |-----x-x-------------x-------|-----------------------------|
 |-----x-x-0-0---0-0-x---0-----|-----------------------------|
 |-0-0-----0-0---0-0-----0-----|-----------------------------|

 


 


 Slow Trot Q=65


 Q Q H W H Q Q


 

 
 |-20\\----------||----------|--------------|
 |-20\\----------||----------|--------------|
 |--------------||----------|--------------|
 |--------------||----------|---------12\\--|
 |-20\\----------||----------|---------12\\--|
 |--------------||----------|---------12\\--|
 PM----------------------------------------------|

 


 S S S S S S E S S S S E E S S S S S S E S S S S a E +E


 

 
 |---------------------------|------------------------------------|
 |---------------------------|------------------------------------|
 |---------------------------|------------------------------------|
 |-0-0-x-x-0-0-x-0-0-x-x-0-x-|-0-0-x-x-0-0-x-0-0-x-x-10s12-(12)\\--|
 |-0-0-x-x-0-0-x-0-0-x-x-0-x-|-0-0-x-x-0-0-x-0-0-x-x-10s12-(12)\\--|
 |-0-0-x-x-0-0-x-0-0-x-x-0-x-|-0-0-x-x-0-0-x-0-0-x-x-10s12-(12)\\--|
 PM------------| ~~~~~~~

 


 S S S S a E +E S S S S S S S S +S S S S a E E S S S a S +E. S


 

 
 |----------------------------------|-------------------------------------|
 |----------------------------------|-------------------------------------|
 |----------------------------------|-------------------------------------|
 |-5s6-5-0-2s3-(3)\\-0-2-3-0-2-3-2-0-|-(0)-6s5-0-2s3-0-7s9-0-7s10-(10)-10\\-|
 |-5s6-5-0-2s3-(3)\\-0-2-3-0-2-3-2-0-|-(0)-6s5-0-2s3-0-7s9-0-7s10-(10)-10\\-|
 |-5s6-5-0-2s3-(3)\\-0-2-3-0-2-3-2-0-|-(0)-6s5-0-2s3-0-7s9-0-7s10-(10)-10\\-|
 PM------------| ~~~~~~~

 


 S S S S a E +E S S S S S S S S +S S S S a E E S S S S +E a E


 

 
 |----------------------------------|-----------------------------------------|
 |----------------------------------|-----------------14s16s14s17-(17)--------|
 |----------------------------------|-----------------14s16s14s17-(17)-17s19\\-|
 |-5s6-5-0-2s3-(3)\\-0-2-3-0-2-3-2-0-|-(0)-6s5-0-2s3-0-14s16s14s17-(17)-17s19\\-|
 |-5s6-5-0-2s3-(3)\\-0-2-3-0-2-3-2-0-|-(0)-6s5-0-2s3-0-------------------------|
 |-5s6-5-0-2s3-(3)\\-0-2-3-0-2-3-2-0-|-(0)-6s5-0-2s3-0-------------------------|
 PM--------------------------------------|

 


 S S S S S S E S S S S E E S S S S S S E Q a E. S


 

 
 |---------------------------|---------------^0-----------||
 |---------------------------|---------------^1--------6/-||
 |---------------------------|---------------^0--9s12-----||
 |-0-0-x-x-0-0-x-0-0-x-x-0-x-|-0-0-x-x-0-0-x-^3--9s12-----||
 |-0-0-x-x-0-0-x-0-0-x-x-0-x-|-0-0-x-x-0-0-x-^3--9s12-----||
 |-0-0-x-x-0-0-x-0-0-x-x-0-x-|-0-0-x-x-0-0-x-^3-----------||

 


 


 ~~~~~ ~~~PM----|


 E S S S E. S S S S S S a S +S


 

 
 |-------10----------------------------------------|
 |-13b15----12-------------------------------------|
 |-------------10---------------------7s12b14-(12)-|
 |----------------12----------<7>-<7>--------------|
 |--------------------0-0-x-x----------------------|
 |--------------------0-0-x-x----------------------|

 


 


 ~~~~~~~


 S S S S +Q S S S S S S E


 

 
 |-10---------------------------------|
 |-10---------------------------------|
 |----13----10-(10)-------------------|
 |-------12---------------------------|
 |-------------------0-0-x-x-0-0------|
 |-------------------0-0-x-x-0-0-15\\--|

 


 


 ~~~


 S +S +S S Q S S S S +S E S


 

 
 |-----------------------------------------------|
 |-----------------------------------------------|
 |-----------------------------------------------|
 |-5b6==(5)r(5)-3-[5]--[3]-[4]-[5]-[3]-(3)-------|
 |-----------------------------------------[5]-3-|
 |-----------------------------------------------|

 


 


 / \\4____\\1/ \\2/ \\2/ \\2/ \\2/ \\1/ | |


 S S a Q E +T +T +T +T +T +T +T +T +E +E


 

 
 |---------------------------------------------------------------------------|
 |---------------------------------------------------------------------------|
 |------------[5]b7-([5])-([5])-([5])-([5])-([5])-([5])-(5)--(5)--([5])-(5)\\-|
 |-[3]-----------------------------------------------------------------------|
 |-----5-3s5-----------------------------------------------------------------|
 |---------------------------------------------------------------------------|

 


 


 ~~~~~ ~~~


 E S S S E. S S S S S a +E.


 

 
 |-------10------------------------------------|
 |-13b15----12------------------10b12-(10)b13==|
 |-------------10------------------------------|
 |----------------12---------------------------|
 |---------------------------------------------|
 |--------------------0-0-x-x-0----------------|

 


 


 ~~


 +S S S S +Q S S S S E S S


 

 
 |--------------------------------------|
 |-(10)r10------------------------------|
 |------------10-(10)\\------------------|
 |---------12-------------------------0-|
 |--------------------------------------|
 |----------------------0-0-x-x-12\\-0---|

 


 


 ~~ ~~


 E S S Q S S S S +S E S


 

 
 |-20----------20--17-18-19-17-(17)-------|
 |-20b22-20-18-20--18-19-20-18-(18)-------|
 |----------------------------------19-17-|
 |----------------------------------------|
 |----------------------------------------|
 |----------------------------------------|

 


 


 ~~


 S S S. T E +S. T a +S +S +Q +S S


 

 
 |-17-------------------(0)--------------------------------0-||
 |-18-----------------------13b15-(13)-(13)b19==(13)r=(13)---||
 |----19-19p17-19-(19)\\--------------------------------------||
 |-----------------------------------------------------------||
 |-----------------------------------------------------------||
 |-----------------------------------------------------------||

 


 


 /1\\


 S E S E. +S E +S S S E +S


 

 
 |-------------------------------------------------|
 |-------12b13==(12)-12r==(12)p10-12-12b13==(12)r\\-|
 |-------------------------------------------------|
 |-3-3p0-------------------------------------------|
 |-3-3-0-------------------------------------------|
 |-3-3-0-------------------------------------------|

 


 


 \\1/ \\1/ \\1/


 S S S. T +E +E +S S S S +S E +S


 

 
 |----------------------------------------10---(10)------------|
 |--------12pb13r(12)b13==(12)-(12)r12-10-----------12b13-(12)-|
 |-------------------------------------------------------------|
 |-3-3-x/------------------------------------------------------|
 |-3-3-x/------------------------------------------------------|
 |-3-3-x/------------------------------------------------------|

 


 


 ~~~~~~~~~


 S S S S +E +E S S +S S S E +S


 

 
 |---------------------------10---------------------------|
 |---------------------------10-12b13r(12)p10-12-13-(13)\\-|
 |--------12b13r(12)b14-(12)------------------------------|
 |-3-3-x/-------------------------------------------------|
 |-3-3-x/-------------------------------------------------|
 |-3-3-x/-------------------------------------------------|

 


 


 /2\\ /2\\ /2\\ /2\\ /2\\ /2\\ /2\\


 ~~~~~~ ~~~~~~~~~~~~~~ ~~~~~~~~~~~~~~


 E. S E S S +S S E E E


 

 
 |-17---17-17---17---17---(17)-17---17---17-------||
 |-18---18-18---18---18---(18)-18---18---18-------||
 |------------------------------------------------||
 |--------------------------------------------17\\-||
 |--------------------------------------------17\\-||
 |--------------------------------------------17\\-||
 PM------------| ~~~~~~~

 


 S S S S a E +E S S S S S S S S +S S S S a E E S S S a S +E. S


 

 
 |----------------------------------|-------------------------------------|
 |----------------------------------|-------------------------------------|
 |----------------------------------|---------------------------------17\\-|
 |-5s6-5-0-2s3-(3)\\-0-2-3-0-2-3-2-0-|-(0)-6s5-0-2s3-0-7s9-0-7s10-(10)-17\\-|
 |-5s6-5-0-2s3-(3)\\-0-2-3-0-2-3-2-0-|-(0)-6s5-0-2s3-0-7s9-0-7s10-(10)-17\\-|
 |-5s6-5-0-2s3-(3)\\-0-2-3-0-2-3-2-0-|-(0)-6s5-0-2s3-0-7s9-0-7s10-(10)-----|
 PM------------|

 


 S S S S a E +E S S S S S S S S


 

 
 |----------------------------------|
 |----------------------------------|
 |----------------------------------|
 |-5s6-5-0-2s3-(3)\\-0-2-3-0-2-3-2-0-|
 |-5s6-5-0-2s3-(3)\\-0-2-3-0-2-3-2-0-|
 |-5s6-5-0-2s3-(3)\\-0-2-3-0-2-3-2-0-|

 


 


 ~~~~~~~~~~~~~


 +S S S S a E S. T S S S S +E +E


 

 
 |------------------------------------------------|
 |------------------17-/19-\\17-/19-\\17-(17)-(17)\\-|
 |------------------17-/19-\\17-/19-\\17-(17)-(17)\\-|
 |-(0)-6s5-0-2s3-0--17-/19-\\17-/19-\\17-(17)-(17)\\-|
 |-(0)-6s5-0-2s3-0--------------------------------|
 |-(0)-6s5-0-2s3-0--------------------------------|

 


 


 S S s s S S s s S S s s E E


 

 
 |-------------------------------------------|
 |-------------------------------------------|
 |---------------------------------------<5>-|
 |-0-0-<3>-<3>-0-0---------0-0-<2>-<2>-0-<5>-|
 |-0-0-<3>-<3>-0-0---------0-0-<2>-<2>-0-----|
 |-0-0---------0-0-<3>-<3>-0-0---------0-----|

 


 


 / \\3__________|


 +Q +E +S +S Q a Q


 

 
 |--------------------------0--7s10\\--|
 |--------------------------1--7s10\\--|
 |-(<5>)--(<5>)-(<5>)-(<5>)-0---------|
 |-(<5>)--(<5>)-(<5>)-(<5>)-3---------|
 |--------------------------3--7s10\\--|
 |--------------------------3---------|
 ~~~~~ ~~~ PM-------|

 


 E S S S E. S S S S S S E


 

 
 |-------10-----------------------------13b15r|
 |-13b15----12--------------------------13b15r|
 |-------------10-----------------------------|
 |----------------12--------------------------|
 |--------------------<5>-<5>-x-x---<5>-------|
 |----------------------------x-x-0-----------|

 


 


 ~~~~


 +S S S S +Q S S S S S E S


 

 
 |-(13)-13-10--8-----(8)----------------------|
 |-(13)-13----11b13-(11)----------------------|
 |--------------------------------------------|
 |----------------------------------xs12\\-----|
 |--------------------------<5>-x-x-------<5>-|
 |------------------------0-----x-x-----------|

 


 


 ~~~~~~~ ~~~~~~


 S +S +S S S a E +S S S S S +E S S


 

 
 |-------------------------------------------|
 |-------------------------------------------|
 |-------------------------------------------|
 |-5b7==(5)r(5)p3-5-3s5-(5)\\-5-5-5-3-(3)-----|
 |---------------------------------------5-3-|
 |-------------------------------------------|

 


 


 / \\7____\\1/ \\1/ \\1/ \\1/ \\1/ \\1/ \\7 |


 ~~


 S S a E E. S +T +T +T +T +T +T +T +T +Q


 

 
 |------------------------------------------------------------------------|
 |------------------------------------------------------------------------|
 |------------[7]--([7])-([7])-([7])-([7])-([7])-([7])-([7])-([7])--([7])-|
 |-3----------------------------------------------------------------------|
 |---5-3s5-5--------------------------------------------------------------|
 |------------------------------------------------------------------------|

 


 


 \\1/ \\1/ \\1/ \\1/


 E E S S S S S S s s s a +E.


 

 
 |-15---17---13------------------------------------------|
 |--------------15-15---15-------------------10b12==(10)-|
 |-------------------------------------------------------|
 |-------------------------------------------------------|
 |-------------------------------------------------------|
 |---------------------------0-0-<3>-<3>-<3>-------------|

 


 


 ~~


 +S +S S a S +Q S S S S S S S S


 

 
 |-----------------------------------13----13-13-------|
 |-(10)pb13r(10)---------------------13----13-13-0-----|
 |------------------7s10-(10)-----------10-------0-----|
 |---------------12--------------<7>----10---------<7>-|
 |-----------------------------------------------------|
 |-----------------------------0-----------------------|

 


 


 E E S +S E S S S S +S S S S


 

 
 |-20b22-20b22-20-(20)\\----17-18-19-17-(17)-17-14----|
 |----------------------5/-18-19-20-18-(18)-18-15----|
 |------------------------------------------------14-|
 |---------------------------------------------------|
 |---------------------------------------------------|
 |---------------------------------------------------|

 


 


 /1\\


 a S S S S E. S E S S S S E


 

 
 |----------------12-----------------||
 |-13s15s13-13-13-13-----------------||
 |-12s14s12-12-12-12-----------------||
 |---------------------xsxsxsxsxsxsx-||
 |---------------------xsxsxsxsxsxsx-||
 |---------------------xsxsxsxsxsxsx-||

 


 


 \\1/


 ~~~


 S E S E +E +E +S S S E.


 

 
 |---------------------------------------|
 |-------12b13==(12)-(12)r(12)-10-12-13--|
 |---------------------------------------|
 |-3-3p0---------------------------------|
 |-3-3p0---------------------------------|
 |-3-3p0---------------------------------|

 


 


 \\2/ \\2/ \\2/ \\2/ /1\\ /1\\


 ~~~~ ~~


 S S T T S +S +S S +S +S S T T S S S S +S


 

 
 |-------------------------------------------------10-----------------|
 |---------12-(12)--(12)h13-(13)--(13)p12-10h13---------12---12-(12)\\-|
 |----------------------------------------------13--------------------|
 |-3-3----------------------------------------------------------------|
 |-3-3-3p0------------------------------------------------------------|
 |-3-3-3p0------------------------------------------------------------|

 


 


 TP ~~~~~~~~~~~~~


 S S S S E. +S S S S S S E S S S Q. E E E E


 

 
 |------------------------10-10-10-10-10-10----|-15-15-----15----15-15-15------||
 |------------------------10-10-13-10-12-13-10-|-15-15b17==15----15-15-15r-13\\-||
 |----------19S12b14-(12)----------------------|---------------------------12\\-||
 |-3-3-----------------------------------------|-------------------------------||
 |-3-3-----------------------------------------|-------------------------------||
 |-3-3-[3]/------------------------------------|-------------------------------||
 PM------------| ~~~~~~~

 


 S S S S a E +E S S S S S S S S +S S S S a E E S S S a S +E. +S


 

 
 |----------------------------------|---------------------------------------|
 |----------------------------------|---------------------------------------|
 |----------------------------------|---------------------------------------|
 |-5s6-5-0-2s3-(3)\\-0-2-3-0-2-3-2-0-|-(0)-6s5-0-2s3-0-7s9-0-7s10-(10)-(10)\\-|
 |-5s6-5-0-2s3-(3)\\-0-2-3-0-2-3-2-0-|-(0)-6s5-0-2s3-0-7s9-0-7s10-(10)-(10)\\-|
 |-5s6-5-0-2s3-(3)\\-0-2-3-0-2-3-2-0-|-(0)-6s5-0-2s3-0-7s9-0-7s10-(10)-(10)\\-|
 PM------------| ~~~~~~

 


 S S S S a E +E S S S S S S S S +S S S S a E E S S S S +S E.


 

 
 |----------------------------------|-----------------------------8\\-|
 |----------------------------------|-----------------7s8s7s5-(5)-8\\-|
 |----------------------------------|-----------------7s8s7s5-(5)----|
 |-5s6-5-0-2s3-(3)\\-0-2-3-0-2-3-2-0-|-(0)-6s5-0-2s3-0-7s8s7s5-(5)----|
 |-5s6-5-0-2s3-(3)\\-0-2-3-0-2-3-2-0-|-(0)-6s5-0-2s3-0----------------|
 |-5s6-5-0-2s3-(3)\\-0-2-3-0-2-3-2-0-|-(0)-6s5-0-2s3-0----------------|
 PM------------| ~~

 


 S S S S a E +E S S S S S S S S +S S S S a E E S E. a S E +S


 

 
 |----------------------------------|---------------------------------------|
 |----------------------------------|------------------------10s12s10-(10)\\-|
 |----------------------------------|-----------------12s13--10s12s10-(10)\\-|
 |-5s6-5-0-2s3-(3)\\-0-2-3-0-2-3-2-0-|-(0)-6s5-0-2s3-0-12s13--10s12s10-(10)\\-|
 |-5s6-5-0-2s3-(3)\\-0-2-3-0-2-3-2-0-|-(0)-6s5-0-2s3-0-----------------------|
 |-5s6-5-0-2s3-(3)\\-0-2-3-0-2-3-2-0-|-(0)-6s5-0-2s3-0-----------------------|
 PM------------|

 


 S S S S a E +E S S S S S S S S +S S S S a E E H


 

 
 |----------------------------------|-----------------------|
 |----------------------------------|-----------------7/----|
 |----------------------------------|-----------------7/----|
 |-5s6-5-0-2s3-(3)\\-0-2-3-0-2-3-2-0-|-(0)-6s5-0-2s3-0-7/----|
 |-5s6-5-0-2s3-(3)\\-0-2-3-0-2-3-2-0-|-(0)-6s5-0-2s3-0-------|
 |-5s6-5-0-2s3-(3)\\-0-2-3-0-2-3-2-0-|-(0)-6s5-0-2s3-0-------|

 


 


 W H Q Q


 

 
 |----------|--------------|
 |----------|---------23\\--|
 |----------|---------23\\--|
 |----------|--------------|
 |----------|--------------|
 |----------|--------------|

 


 


 / \\3____\\1/ \\1/ \\1/ \\1/ \\1/ \\2____\\1/ \\1/ \\1/ |


 S S S S S S E +T +T +T +T +T +T +T +T +S. +T +E


 

 
 |---------------------------------------------------------------------------------------|
 |---------------------------------------------------------------------------------------|
 |-----------------<3>-(<3>)-(<3>)-(<3>)-(<3>)-(<3>)-(<3>)-(<3>)-(<3>)-(<3>)-(<3>)-(<3>)-|
 |---------------------------------------------------------------------------------------|
 |-0-0-----------------------------------------------------------------------------------|
 |-0-0-<4>-<4>-0-0-----------------------------------------------------------------------|

 


 


 [2/4] [4/4] ~~~ T T T


 S S S S S S S S Q. +E S S E +E. S


 

 
 |-------------------|-0----(0)-------------------0(12)-|
 |-------------------|-1----(1)-1-1-0(12)-(0(12))-1(13)-|
 |-------------------|-0----(0)-0---0(12)-(0(12))-------|
 |-------------------|-3----(3)-------------------------|
 |-0-0-x-x-0-0-12\\-0-|-3----(3)-------------------------|
 |-0-0-x-x-0-0-------|-3----(3)-------------------------|

 


 


 T T T T


 S S E +E. S S S S S E E


 

 
 |-0(12)---------------------0----------------||
 |-------1(13)---------------1-1-1-----1------||
 |-------------0(12)-(0(12))-------0---0------||
 |-------------------------------------3------||
 |-----------------------------------3--------||
 |---------------------------------------12\\--||

 


 


 W W


 

 
 |-----------------------------------|-----------------------------------|
 |-----------------------------------|-----------------------------------|
 |-----------------------------------|-----------------------------------|
 |-----------------------------------|-----------------------------------|
 |-----------------------------------|-----------------------------------|
 |-----------------------------------|-----------------------------------|

 


 |


 | Gtr II


 | \\2.5 \\2.5


 | PM-| PM-|


 | |3| |3|


 | S S E E S E Q +S S S S S S E E S E Q +S S S S


 

 
 |-----------------------------15--x-|-----------------------------15--x-|
 |-----------------------------------|-----------------------------------|
 |-------------[5]b7--(5)-<12>-------|-------------[5]b7--(5)-<12>-------|
 |--------------------------------12-|--------------------------------12-|
 |-0-0---xsx-------------------------|-0-0---xsx-------------------------|
 |-0-0-------------------------------|-0-0-------------------------------|

 


 |


 | Gtr III


 | W W


 

 
 |-----------------------------------|-----------------------------------|
 |-----------------------------------|-----------------------------------|
 |-----------------------------------|-----------------------------------|
 |-----------------------------------|-----------------------------------|
 |-----------------------------------|-----------------------------------|
 |-----------------------------------|-----------------------------------|

 


 


 W H Q Q


 

 
 |--------------------------------------------|-----------------------------------------------||
 |--------------------------------------------|-----------------------------------------------||
 |--------------------------------------------|-----------------------------------------------||
 |--------------------------------------------|----------------------------x\\-----------------||
 |--------------------------------------------|----------------------------x\\-----------------||
 |--------------------------------------------|-----------------------------------------------||

 


 |


 | \\2.5 \\2.5


 | PM-| PM-|


 | |3| |3|


 | S S E E S E Q +S S S S S S E E S E Q +S S S S


 

 
 |------------------------------------15----x-|------------------------------------15----x----||
 |--------------------------------------------|-----------------------------------------------||
 |----------------[5]b7------(5)-<12>---------|----------------[5]b7------(5)-<12>------------||
 |-----------------------------------------12-|-----------------------------------------12----||
 |-0-0------xsx-------------------------------|-0-0------xsx----------------------------------||
 |-0-0----------------------------------------|-0-0-------------------------------------------||

 


 |


 | S S S S E E S S E E +S S S S S S E E S S E E +S S


 

 
 |-----10-------------------------------------|-----10----------------------------------------||
 |-----10-------------------------------------|-----10----------------------------------------||
 |----------------------4-/7-\\5-------(5)\\----|----------------------4-/7-\\5-------(5)\\-------||
 |----------------------4-/7-\\5-------(5)\\----|----------------------4-/7-\\5-------(5)\\-------||
 |-0-0----------x--x--------------------------|-0-0----------x--x-----------------------------||
 |-0-0----------x--x--------------------------|-0-0----------x--x-----------------------------||

 


 


 Guitar Solo


 ~~~~


 S +E. +E. S +S +S S S E +E


 

 
 |-12----(12)------(12)----12-----(12)---(12)--------12----------(12)-----|
 |-12b13-(12)------(12)----12b13==(12)---(12)r-12p10-12b13=======(12)-----|
 |------------------------------------------------------------------------|
 |------------------------------------------------------------------------|
 |------------------------------------------------------------------------|
 |------------------------------------------------------------------------|

 


 |


 | \\2.5


 | PM-|


 | |3|


 | S S E E S E Q +S S S S


 

 
 |----------------------------------------------------------------15----x-|
 |------------------------------------------------------------------------|
 |---------------------------------[5]b7-------------(5)----<12>----------|
 |---------------------------------------------------------------------12-|
 |--0------0---------xsx--------------------------------------------------|
 |--0------0--------------------------------------------------------------|

 


 |


 | S S S S E E S S E E +S S


 

 
 |------------10----------------------------------------------------------|
 |------------10----------------------------------------------------------|
 |-----------------------------------------4---/7----\\5-----------(5)\\----|
 |-----------------------------------------4---/7----\\5-----------(5)\\----|
 |--0------0-------------x----------x-------------------------------------|
 |--0------0-------------x----------x-------------------------------------|

 


 


 \\0.5/ \\2.5 \\1.5/ \\2____|


 ~~~~~~~~~~~


 +E +S +T T S +S S +S S S S S E +S +S


 

 
 |-(12)---(12)----------------------------------------------------------------------|
 |-(12)---(12)r(12)p10--------------------------------------------------------------|
 |---------------------12-(12)------0----(0)-10-------------[10]b13r=====(10)--(10)-|
 |----------------------------------------------------------------------------------|
 |--------------------------------------------------12-10---------------------------|
 |--------------------------------------------------------0-------------------------|

 


 |


 | \\2.5


 | PM-|


 

 
 | |----3----|

 


 | S S E E S E Q +S S S S


 

 
 |------------------------------------------------------------------------15-----x--|
 |----------------------------------------------------------------------------------|
 |-------------------------------------------[5]b7-----------(5)----<12>------------|
 |------------------------------------------------------------------------------12--|
 |---0--0---------------xs========x-------------------------------------------------|
 |---0--0---------------------------------------------------------------------------|

 


 |


 | S S S S E E S S E E +S S


 

 
 |---------10-----------------------------------------------------------------------|
 |---------10-----------------------------------------------------------------------|
 |---------------------------------------------------4-/7----\\5-----------(5)\\------|
 |---------------------------------------------------4-/7----\\5-----------(5)\\------|
 |---0--0---------------------------x---------x-------------------------------------|
 |---0--0---------------------------x---------x-------------------------------------|

 


 


 S S E +E S S T +T T T S S +Q


 

 
 |-----15b17---(15)--15-13-15b16.5==(15)r15p13-----------------------------|
 |-0-------------------------------------------15-15b18==(15)--------------|
 |-0-----------------------------------------------------------------------|
 |-0-0---------------------------------------------------------------------|
 |---0---------------------------------------------------------------------|
 |-------------------------------------------------------------------------|

 


 |


 | \\2.5


 | PM-|


 | |3|


 | S S E E S E Q +S S S S


 

 
 |-----------------------------------------------------------------15----x-|
 |-------------------------------------------------------------------------|
 |-------------------------[5]b7--------------------------(5)-<12>---------|
 |----------------------------------------------------------------------12-|
 |-0-0-----------xsx-------------------------------------------------------|
 |-0-0---------------------------------------------------------------------|

 


 |


 | S S S S E E S S E E +S S


 

 
 |-----10------------------------------------------------------------------|
 |-----10------------------------------------------------------------------|
 |----------------------------------------4----/7---------\\5-------(5)\\----|
 |----------------------------------------4----/7---------\\5-------(5)\\----|
 |-0-0----------------x-----x----------------------------------------------|
 |-0-0----------------x-----x----------------------------------------------|

 


 


 |--3---|


 +T T T S S T T S T +T T T T T T T T T S S E S S


 

 
 |------------------------10----------------------------------------------------------------|
 |-(15)r15p13----15-13s10-10------------------------------------------------------------/13-|
 |------------14-------------12b13r==(12)p10h12p10s5----------------------------------------|
 |----------------------------------------------------7p===5--------[3]b4-------------------|
 |-----------------------------------------------------------6s5p=3--------5--------5-------|
 |------------------------------------------------------------------------------------------|

 


 |


 | \\2.5


 | PM-|


 

 
 | |---3---|

 


 | S S E E S E Q +S S S S


 

 
 |---------------------------------------------------------------------------------15-----x-|
 |------------------------------------------------------------------------------------------|
 |---------------------------------------------------[5]b7----------------(5)-<12>----------|
 |---------------------------------------------------------------------------------------12-|
 |---0---------0-----------xs======x--------------------------------------------------------|
 |---0---------0----------------------------------------------------------------------------|

 


 |


 | S S S S E E S S E E +S S


 

 
 |---------------10-------------------------------------------------------------------------|
 |---------------10-------------------------------------------------------------------------|
 |-----------------------------------------------------------4---/7-------\\5-------(5)\\-----|
 |-----------------------------------------------------------4---/7-------\\5-------(5)\\-----|
 |---0---------0---------------------------x----------x-------------------------------------|
 |---0---------0---------------------------x----------x-------------------------------------|

 


 


 ~~~


 

 
 |--3--| |----3-----| |---3----| |---------6---------|

 


 T T T T T T T T T T T T +T T T T T T T T T T T T +T T T T T E. a S


 

 
 |-10h14p10-------------10-------10--------------------------------------------------------------------------------------------|
 |----------13p10h13b15----13p10----10---------------------------10h===13p10-------12b13r(12)p10------------------------10s13--|
 |-------------------------------------12b13r(12)p10----10-12-13-------------12p10---------------12p10----10-------------------|
 |---------------------------------------------------12------------------------------------------------12----------------------|
 |-----------------------------------------------------------------------------------------------------------------------------|
 |-----------------------------------------------------------------------------------------------------------------------------|

 


 |


 | \\2.5


 | PM-|


 

 
 | |-----3------|

 


 | S S E E S E Q +S S S S


 

 
 |-----------------------------------------------------------------------------------------------------------------15-------x--|
 |-----------------------------------------------------------------------------------------------------------------------------|
 |---------------------------------------------------------------[5]b7------------------------------------(5)-<12>-------------|
 |-------------------------------------------------------------------------------------------------------------------------12--|
 |--0--------0--------------------xs===========x-------------------------------------------------------------------------------|
 |--0--------0-----------------------------------------------------------------------------------------------------------------|

 


 |


 | S S S S E E S S E E +S S


 

 
 |----------------10-----------------------------------------------------------------------------------------------------------|
 |----------------10-----------------------------------------------------------------------------------------------------------|
 |----------------------------------------------------------------------------4----/7---------------------\\5-------(5)\\--------|
 |----------------------------------------------------------------------------4----/7---------------------\\5-------(5)\\--------|
 |--0--------0----------------------------------------x-----------x------------------------------------------------------------|
 |--0--------0----------------------------------------x-----------x------------------------------------------------------------|

 


 


 ~~~~~


 

 
 |-------------12:8---------------| |------6-------| |--3--| |---3----| |--3--|

 


 T T T T T T T T T T T T T T T T T T T T T a S T T T X X X X X X T T T T E.. T


 

 
 |-10h14p10----------10h13p10----10----------------------------------------------------------15-20p15-------------20b22-------------------|
 |----------13p10h13----------13----13-10h13p10----10-------------------15h===18p15-15h18-18----------18-15-------------------------------|
 |----------------------------------------------13----13-10h13p10-13s17-------------------------------------19p17-------------------------|
 |-----------------------------------------------------------------------------------------------------------------------------------[16]-|
 |----------------------------------------------------------------------------------------------------------------------------------------|
 |----------------------------------------------------------------------------------------------------------------------------------------|

 


 |


 | \\2.5


 | PM-|


 

 
 | |-----3-----|

 


 | S S E E S E Q +S S S S


 

 
 |---------------------------------------------------------------------------------------------------------------------------15----x------|
 |----------------------------------------------------------------------------------------------------------------------------------------|
 |----------------------------------------------------------------------[5]b7-------------------------------------(5)---<12>--------------|
 |--------------------------------------------------------------------------------------------------------------------------------12------|
 |--0--------0--------------------------xs==========x-------------------------------------------------------------------------------------|
 |--0--------0----------------------------------------------------------------------------------------------------------------------------|

 


 |


 | S S S S E E S S E E +S S


 

 
 |-------------------10-------------------------------------------------------------------------------------------------------------------|
 |-------------------10-------------------------------------------------------------------------------------------------------------------|
 |-----------------------------------------------------------------------------------4----------/7----------------\\5---------(5)\\---------|
 |-----------------------------------------------------------------------------------4----------/7----------------\\5---------(5)\\---------|
 |--0--------0--------------------------------------------x--------------x----------------------------------------------------------------|
 |--0--------0--------------------------------------------x--------------x----------------------------------------------------------------|

 


 


 \\1


 ~~~~~


 

 
 |---3----|

 


 +E. +T T T T T T T T +T T T T +T T T T T T T E. S


 

 
 |--------------------17----20----------17--------------------------------17------------------10---------------------|
 |-----------------------18----17---\\15----17b18r(17)p15---------------------12b13r12p10------10-15b17---------------|
 |-------------------------------------------------------17----16b17-(16)----------------[12]--------------------12\\-|
 |-([16])------([16])------------------------------------------------------------------------------------------------|
 |-------------------------------------------------------------------------------------------------------------------|
 |-------------------------------------------------------------------------------------------------------------------|

 


 |


 | \\2.5


 | PM-|


 

 
 | |---3---|

 


 | S S E E S E Q +S S S S


 

 
 |----------------------------------------------------------------------------------------------------------15----x--|
 |-------------------------------------------------------------------------------------------------------------------|
 |-------------------------------------------------------[5]b7-----------------------------------(5)---<12>----------|
 |---------------------------------------------------------------------------------------------------------------12--|
 |----0---0---------------xs======x----------------------------------------------------------------------------------|
 |----0---0----------------------------------------------------------------------------------------------------------|

 


 |


 | S S S S E E S S E E +S S


 

 
 |----------10-------------------------------------------------------------------------------------------------------|
 |----------10-------------------------------------------------------------------------------------------------------|
 |---------------------------------------------------------------------4-----/7------------------\\5---------(5)\\-----|
 |---------------------------------------------------------------------4-----/7------------------\\5---------(5)\\-----|
 |----0---0------------------------------x----------------x----------------------------------------------------------|
 |----0---0------------------------------x----------------x----------------------------------------------------------|

 


 


 \\1 \\1 \\1.5/ \\1.5/ \\1


 ~~~~~ ~~~~~~~~~~~~~~~~~~


 

 
 |--------6---------| |--------6--------|

 


 S S S S S S S S S S S S E T T T T E. +S


 

 
 |---------------------------------------------------------------------------------------|
 |-8-[8]---8--8--8---[8]----8-[8]----8-[8]-8-[8]pb11--8-------8p6------------------------|
 |----------------------------------------------------------------7p5--7------------(7)\\-|
 |---------------------------------------------------------------------------------------|
 |---------------------------------------------------------------------------------------|
 |---------------------------------------------------------------------------------------|

 


 |


 | \\2.5


 | PM-|


 

 
 | |---3----|

 


 | S S E E S E Q +S S S S


 

 
 |-----------------------------------------------------------------------------15----x---|
 |---------------------------------------------------------------------------------------|
 |---------------------------------------------------[5]b7------------(5)-<12>-----------|
 |----------------------------------------------------------------------------------12---|
 |-0-----0------------------xs=======x---------------------------------------------------|
 |-0-----0-------------------------------------------------------------------------------|

 


 |


 | S S S S E E S S E E +S S


 

 
 |-----------10--------------------------------------------------------------------------|
 |-----------10--------------------------------------------------------------------------|
 |---------------------------------------------------------4-/7-------\\5-------(5)\\------|
 |---------------------------------------------------------4-/7-------\\5-------(5)\\------|
 |-0-----0------------------------------x-------------x----------------------------------|
 |-0-----0------------------------------x-------------x----------------------------------|

 


 


 [2/4]  

 
 |--3--| |------6-------| |-------------12:8---------------|

 


 X X X X T T T T T T T T T T T T T T T T T T T T T


 |-10h13h15p13h15p13h15p13h15p13h15p13h15p13h15p13h15p13h15p13h15p13h15p13h15-


 

 
 |----------------------------------------------------------------------------
 |----------------------------------------------------------------------------
 |----------------------------------------------------------------------------
 |----------------------------------------------------------------------------
 |----------------------------------------------------------------------------

 


 


 T T T T T


 

 
 |--3--| |--------3--------| |--3--|

 


 X X X X T T T T T T T T X X X X X X T T T X X X X X X X X


 

 
 |-13h15p13h15p13h15p13h15p13h15p13p10h13-15-13-15-13p10-15-13-15-13p10-15-13p10s9h12-15-|
 |---------------------------------------------------------------------------------------|
 |---------------------------------------------------------------------------------------|
 |---------------------------------------------------------------------------------------|
 |---------------------------------------------------------------------------------------|
 |---------------------------------------------------------------------------------------|

 


 


 T T T T T T T T


 

 
 |-3--| |-3--| |------3------| |-----6------|

 


 X X X X T T T T T T X X X X X X T T T T T T X X X X X X X X


 

 
 |-12h15-12p9-15-12p9---------------12-15-12p9------------9h12-17-12p9---------------
 |--------------------15-12p9------------------15-10p9h10--------------12-17-12p9h10-
 |----------------------------14-11--------------------------------------------------
 |-----------------------------------------------------------------------------------
 |-----------------------------------------------------------------------------------
 |-----------------------------------------------------------------------------------

 


 


 T T T T T T


 

 
 |------6-------| |--3--| |------6-------|

 


 X X X X X X X a X X X X X X X X X X X T T T X X X X X X X X X X X X T


 

 
 |-9h12-17-12p9------------------12s14---------------------------------------12-17-12p10---------------|
 |--------------12-17-12p10p9h10-12s13-12p10---------------------17-12p10h13-------------12-17-12p10s8-|
 |-------------------------------------------13p11-17-11p9h11h13---------------------------------------|
 |-----------------------------------------------------------------------------------------------------|
 |-----------------------------------------------------------------------------------------------------|
 |-----------------------------------------------------------------------------------------------------|

 


 


 T T T T T T T T T


 

 
 |-3--| |-3--| |-3--| |--3--|

 


 X X X X X X X X T T T X X X X X T T T X X X X X X T T T T


 

 
 |-8h11-17-11p8----------8-11-17-11p8--------------------------19-10p8--------
 |--------------17-9p8h9--------------11-17-9-18-9-18-9p8--------------19-10p=
 |--------------------------------------------------------19-9----------------
 |----------------------------------------------------------------------------
 |----------------------------------------------------------------------------
 |----------------------------------------------------------------------------

 


 


 T T T T T T T T T


 

 
 |-3--| |-3-| |--3--| |--3--|

 


 X X X X T T T X X X X T T T X X X X X X X X X X X X X X X X X X


 

 
 |--------19-9p8-------------19-9p7--------------------------------------10p5h7p5--|
 |-8-------------19-9p8-------------19-8p7s8h12-15-12-15-12p10-19-10s7h8h10--------|
 |---19-9---------------18-9-------------------------------------------------------|
 |---------------------------------------------------------------------------------|
 |---------------------------------------------------------------------------------|
 |---------------------------------------------------------------------------------|

 


 


 T T T T T T T T T T T


 

 
 |----6-----| |-3--| |-3-| |-----6-----|

 


 X X X X X X T T T T T T X X X X X X X X X X X X T T T T T T


 

 
 |-17-7p5---------------------------17-7p5--------------------------------
 |--------7-17-7p5------17-7p5-------------17-7p5-15-5h7-17-7p5-----------
 |-----------------17-7--------17-7-----------------------------17-7h9-17-
 |------------------------------------------------------------------------
 |------------------------------------------------------------------------
 |------------------------------------------------------------------------

 


 


 T T T T T T T


 

 
 |----3-----| |----6-----| |-3-|

 


 T T T T T T X X X X X X X X T T T T T T T T T T T


 

 
 |-------------------17-7p5---------------------------------|
 |-------17-7p5-------------17-7p5--------------------------|
 |-7p6----------17-7---------------17-7p5-------------------|
 |-----7----------------------------------17-7p5------------|
 |-----------------------------------------------17-7p5s3p0-|
 |----------------------------------------------------------|

 


 


 [4/4]  

 
 ~~ ~ PM------------|

 


 Q +E E Q +S S S S S S S S a E +E S S S S S S S S


 

 
 |-^0--(0)---0--(0)-0-----||-----------------------------------|
 |-^1--(1)---1--(1)-1-1---||-----------------------------------|
 |-^0--(0)---0--(0)---0---||-----------------------------------|
 |-^3--(3)---3--(3)---3---||-5s6-5-0-2s3-(3)\\-0-2-3-0-2-3-2-0--|
 |-^3--(3)---3--(3)---3-0-||-5s6-5-0-2s3-(3)\\-0-2-3-0-2-3-2-0--|
 |-^3--(3)-3------------0-||-5s6-5-0-2s3-(3)\\-0-2-3-0-2-3-2-0--|
 ~~~~~~~ PM------------|

 


 +S S S S a E E S S S a S +E. S S S S S a E +E S S S S S S S S


 

 
 |-------------------------------------|----------------------------------|
 |-------------------------------------|----------------------------------|
 |-------------------------------------|----------------------------------|
 |-(0)-6s5-0-2s3-0-7s9-0-7s10-(10)-10\\-|-5s6-5-0-2s3-(3)\\-0-2-3-0-2-3-2-0-|
 |-(0)-6s5-0-2s3-0-7s9-0-7s10-(10)-10\\-|-5s6-5-0-2s3-(3)\\-0-2-3-0-2-3-2-0-|
 |-(0)-6s5-0-2s3-0-7s9-0-7s10-(10)-10\\-|-5s6-5-0-2s3-(3)\\-0-2-3-0-2-3-2-0-|
 ~~~~~~ PM------------|

 


 +S S S S a E E S S S S +S E. S S S S a E.S S S S S S S S S


 

 
 |---------------------------------|-------------------------------|
 |-----------------7s8s7s5-(5)-17\\-|-------------------------------|
 |-----------------7s8s7s5-(5)-17\\-|-------------------------------|
 |-(0)-6s5-0-2s3-0-7s8s7s5-(5)-17\\-|-5s6-5-0-1s2s3-0-2-3-0-2-3-2-0-|
 |-(0)-6s5-0-2s3-0-----------------|-5s6-5-0-1s2s3-0-2-3-0-2-3-2-0-|
 |-(0)-6s5-0-2s3-0-----------------|-5s6-5-0-1s2s3-0-2-3-0-2-3-2-0-|
 |-----3-----| |--3--|

 


 +S S S S a E E a E a E a E a E a Q


 

 
 |-----------------18s19-------------20s21-------|
 |-----------------------19s20-------------23s24-|
 |-----------------------------19s20-------------|
 |-(0)-6s5-0-2s3-0-------------------------------|
 |-(0)-6s5-0-2s3-0-------------------------------|
 |-(0)-6s5-0-2s3-0-------------------------------|
 PM------------|

 


 S S S S a E. +S S S S S S S S S


 

 
 |----------------------------------------|
 |-12s13-12-7-7s12--(12)\\-----------------|
 |-12s13-12-7-7s12--(12)\\-----------------|
 |-12s13-12-7-7s12--(12)\\-0-2-3-0-2-3-2-0-|
 |------------------------0-2-3-0-2-3-2-0-|
 |------------------------0-2-3-0-2-3-2-0-|

 


 


 ~~~~~


 +S S S S a E E S S S a S +Q


 

 
 |-------------------------------------|
 |-----------------14s16---16s17-(17)--|
 |-----------------14s16---16s17-(17)--|
 |-(0)-6s5-0-2s3-0-14s16---16s17-(17)--|
 |-(0)-6s5-0-2s3-0-------0-------------|
 |-(0)-6s5-0-2s3-0---------------------|
 ~~~~~~~~~~~~~ ~~~~~~~~~~~~~~~~~~~~ PM--------------------|

 


 E E E E a S S S S S S E S S S S S S E S S S S E a S S


 

 
 |-------------17s20-20-20-20-20-20-20-|-------------------------------------|
 |-17-17-17-17-17-20-20-20-20-20-20-20-|-------------------------^17s19s17s==|
 |-17-17-17-17-------------------------|-------------------------^17s19s17s==|
 |-17-17-17-17-------------------------|-0-0-x-x-0-0-x-0-0-x-x-0-^17s19s17s==|
 |-------------------------------------|-0-0-x-x-0-0-x-0-0-x-x-0-^17---------|
 |-------------------------------------|-0-0-x-x-0-0-x-0-0-x-x-0-------------|


Important: The song above is NOT stored on the Chordie server. The original song is hosted at www.xguitar.com. Chordie works as a search engine and provides on-the-fly formatting. Chordie does not index songs against artists'/composers' will. To remove this song please click here.

This song is displayed as text-only. Transposing and tuning is only available for chordpro-songs.
Rate #4 of 5 versions

Jango Player

Login - add to songbook

SHARE PAGE  



You need to log in to post comments

shawn0892 (report)

amazing. must have taken you forever. really good, but really long you should break it down into riffs and fills and solos. really good and acurate. five stars