Guitar Tabs, Chords and Lyrics
Major upgrade!! After one year development the new version of Chordie is now online! Please give feedback.


Ya'Yo Gakk  Steve Vai

As recorded by Steve Vai
(From the 1995 Album ALIEN LOVE SECRETS)
Words by Julian Vai Music by Steve Vai
Gtr I (B E A D G B E) - 'Steve Vai - 7 string electric w/dist'
Intro
Q=138
[4/4] Gtr I
\\2__/
~
Q a Q E E E E E E E E E E E E E E Q
 
 |-----------|------------------|-----0-------0--|
 |-----------|------------------|-----2-------2--|
 |-----------|-9-9---9-9---9----|-----2-------2--|
 |-----------|-7-7---7-7---7----|-------------2--|
 |-----------|-0-0-x-0-0-0------|----------------|
 |----x---x--|---------------7\\-|-2-----2--------|
 |-----------|------------------|-0-----0---0----|

E E E E E E Q E E E E E E Q
 
 |-----0-------0--|-----0-------0--|
 |-----2-------2--|-----2-------2--|
 |-----2-------2--|-----2-------2--|
 |-------------2--|-------------2--|
 |----------------|----------------|
 |-2-----2--------|-2-----2--------|
 |-0-----0---0----|-0-----0---0----|

Verse 1
E E E a +E E E E E E E E E E E Q
 
 |-------------------------||-----0-------0--|
 |-------------------------||-----2-------2--|
 |---2-2-----------2-------||-----2-------2--|
 |---2-2-----------2---2---||-------------2--|
 |---0-0-----------0---2---||----------------|
 |-------4b5==(4)r---4-0---||-2-----2--------|
 |-----------------------3-||-0-----0---0----|

E Q E +E +E Q E E E E E E Q
 
 |----------------------------|-----0-------0--|
 |----------------------------|-----2-------2--|
 |-9----10b11==(10)-(10)r-----|-----2-------2--|
 |---9------------------------|-------------2--|
 |----------------------------|----------------|
 |------------------------9\\--|-2-----2--------|
 |----------------------------|-0-----0---0----|

E E +E E +Q Q E E E E E E Q
 
 |--------------------------------|-------------0--|
 |-/13\\-----------9b10==(9)r------|-----2-------2--|
 |------7b8==(7)r-----------------|-----2-------2--|
 |--------------------------------|-----2-------2--|
 |--------------------------------|-2-----2--------|
 |----------------------------7\\--|-0-----0---0----|
 |--------------------------------|----------------|

~~~~~~~~~~
E Q E +Q Q E E E E E E Q
 
 |--------------------------|-----0-------0---|
 |-15-----[14]-([14])-------|-----2-------2---|
 |----14--------------------|-----2-------2---|
 |--------------------------|-------------2---|
 |--------------------------|-----------------|
 |--------------------------|-2-----2---------|
 |---------------------12\\--|-0-----0---0-----|

a Q a Q a Q Q
 
 |------------------------------------------------|
 |---------15------------10------------15---------|
 |-17b19==(17)r--12b14==(12)r--17b19==(17)r-------|
 |------------------------------------------------|
 |------------------------------------------------|
 |------------------------------------------------|
 |-------------------------------------------12\\--|

Q E E +H Q Q Q Q E E E E E E Q
 
 |----3-2-(2)----|--------------|-----0-------0--|
 |-3----3-(3)----|--------------|-----2-------2--|
 |-2-------------|----4---------|-----2-------2--|
 |-0-------------|-2---------7--|-------------2--|
 |-0-------------|-2---------7--|----------------|
 |---------------|-0-----/5-----|-2-----2--------|
 |-3-------------|--------------|-0-----0---0----|

Chorus
E E E a +E E E E E E E E E Q E E Q E E Q E E Q E E Q E E
 
 |-------------------------||----------------|---------------|---------------|
 |-------------------------||----------------|---------------|---------------|
 |---2-2-----------2-------||----------------|---------------|---------------|
 |---2-2-----------2---2---||-----x-x----x---|----x-x----x---|----x-x----x---|
 |---0-0-----------0---2---||-----x-x----x---|----x-x----x---|----x-x----x---|
 |-------4b5==(4)r---4-0---||-2---x-x----x---|----x-x----x---|----x-x----x---|
 |-----------------------3-||-0--------------|---------------|---------------|

Verse 2
E E E E E E Q E E E E E E Q
 
 |-------------------------||-----0-------0--|
 |-------------------------||-----2-------2--|
 |-----------14-14-14------||-----2-------2--|
 |--------14----14-14------||-------------2--|
 |-------------------------||----------------|
 |-/12-12-------12-12-12\\--||-2-----2--------|
 |-------------------------||-0-----0---0----|

E E E a +E +E +E Q E E E E E E Q
 
 |-----------------------------|-----0-------0--|
 |-----------------------------|-----2-------2--|
 |-/11s4---8b9==(8)-(8)r(8)----|-----2-------2--|
 |-----------------------------|-------------2--|
 |-----------------------------|----------------|
 |--------------------------7--|-2-----2--------|
 |-----------------------------|-0-----0---0----|

E E Q E E Q E E E E E E Q
 
 |----------------------|-----0-------0--|
 |-15--------/14--------|-----2-------2--|
 |------/11-------------|-----2-------2--|
 |----------------------|-----2-------2--|
 |----------------------|-------2--------|
 |-----------------12\\--|-0-----0---0----|
 |----------------------|----------------|

E Q E +E +E Q E E E E E E Q
 
 |---------------------------------|-----0-------0---|
 |-/15-----14pb15==(14)r(14)/------|-----2-------2---|
 |-----13--------------------------|-----2-------2---|
 |---------------------------------|-------------2---|
 |---------------------------------|-----------------|
 |---------------------------------|-2-----2---------|
 |----------------------------10\\--|-0-----0---0-----|

~~
Q Q E +E Q Q E E +H Q Q Q Q E E E E E E Q
 
 |----------------------------|----3-2-(2)----|--------------|-----0-------0---|
 |-/15------15b17==(15)r------|-3----3-(3)----|--------------|-----2-------2---|
 |------13--------------------|-2-------------|----4---------|-----2-------2---|
 |----------------------------|-0-------------|-2---------7--|-------------2---|
 |----------------------------|-0-------------|-2---------7--|-----------------|
 |-----------------------14\\--|---------------|-0-----/5-----|-2-----2---------|
 |----------------------------|-3-------------|--------------|-0-----0---0-----|

Chorus
E E E a +E E E E E E E E E Q E E Q E E Q E E Q E E Q E E
 
 |-------------------------||----------------|---------------|---------------|
 |-------------------------||----------------|---------------|---------------|
 |---2-2-----------2-------||----------------|---------------|---------------|
 |---2-2-----------2---2---||-----x-x----x---|----x-x----x---|----x-x----x---|
 |---0-0-----------0---2---||-----x-x----x---|----x-x----x---|----x-x----x---|
 |-------4b5==(4)r---4-0---||-2---x-x----x---|----x-x----x---|----x-x----x---|
 |-----------------------3-||-0--------------|---------------|---------------|

Guitar Solo
\\5___/
~~~~~~~
E E +Q +H a Q. E +H
 
 |--------------------||---------17----17-(17)----|
 |--------------------||-17b19==(17)---17-(17)----|
 |--------------------||--------------------------|
 |--------------------||--------------------------|
 |-x\\-----------------||--------------------------|
 |----0---(0)--(0)----||--------------------------|
 |--------------------||--------------------------|

~~~~~ ~~~~
 
 |--3--| |---3---|

Q +E E S S a +Q. E E E a +Q +E E E a +Q
 
 |-17-------------------------------|----14-----------------------14-----------------|
 |-17r=(17)-14-17-17-16b17==(16)r---|-17----16-17b21==(17)--(17)r----17-17b21==(17)--|
 |----------------------------------|------------------------------------------------|
 |----------------------------------|------------------------------------------------|
 |----------------------------------|------------------------------------------------|
 |----------------------------------|------------------------------------------------|
 |----------------------------------|------------------------------------------------|

\\1.5____/
~~~~~
 
 |---3---|

+E E E +S a +E. H E E +Q +Q +Q
 
 |-------14--------------------------------|-----17-----(17)--(17)------(17)---|
 |-(17)r----16-(16)-17b21==(17)r-17pb21----|-----17-----(17)--(17)------(17)---|
 |-------------------------------17pb20----|-----16-----(16)--(16)b18===(16)r--|
 |-----------------------------------------|-16\\-------------------------------|
 |-----------------------------------------|-----------------------------------|
 |-----------------------------------------|-----------------------------------|
 |-----------------------------------------|-----------------------------------|

~~~
S S +S S S S S S S +S Q.
 
 |---------------------------------------------------|
 |-17------------------------------------------------|
 |----16pb18r(16)p14-------------14b18==(14)r--------|
 |-------------------16-16-13-15--------------14-----|
 |---------------------------------------------------|
 |---------------------------------------------------|
 |---------------------------------------------------|

S S S S S a +S S S S S S S S S S S
 
 |---------------------------------------------------------|
 |-14p12----12-----------------12-14s12p10----12-10s9------|
 |-------14----14-13b14==(13)r-------------11---------11p9-|
 |---------------------------------------------------------|
 |---------------------------------------------------------|
 |---------------------------------------------------------|
 |---------------------------------------------------------|

~~~~ ~~~~~~~~~~~~~~~~~~~~~~~~~~~~
a +S +E. S S E H W +W
 
 |--------------------------------|-------------|-----------|
 |--------------------------------|-------------|-----------|
 |-11b14==(11)r(11)-9------/11----|-------------|-----------|
 |--------------------11----------|-<12>--------|-(<12>)----|
 |--------------------------------|-------------|-----------|
 |--------------------------------|-------------|-----------|
 |--------------------------------|-------------|-----------|

~~~~~~~~~~~~~~~~~~~ ~~~~~~~~~ T
W H H Q +Q +Q E E
 
 |-------------|-----------||---------------------------|
 |-------------|-----------||-10b12===(10)--(10)--20p10-|
 |-------------|-----------||---------------------------|
 |-<12>--------|-----------||---------------------------|
 |-------------|-----------||---------------------------|
 |-------------|-----------||---------------------------|
 |-------------|-0----0----||---------------------------|

T T T T
 
 |--3--| |--3--|

E E E E E E Q Q
 
 |------------------------------||
 |-22p10-24p10-22p10-20r/-------||
 |------------------------------||
 |------------------------------||
 |-------------------------9\\---||
 |-------------------------9\\---||
 |------------------------------||

\\5_________
~~~~~~~ ~~~~~~~ ~~~~~~~~~ ~~~~~~~
E S S +S S E +E E Q E S S +E E S a +E +S +Q
 
 |---------------------------|-------------------------------------------|
 |---------------------------|-------------------10b12==(10)r(10)--(10)--|
 |-8p0-9-(9)p0-11-(11)-9-11--|-10p0-11-(11)-13---------------------------|
 |---------------------------|-------------------------------------------|
 |---------------------------|-------------------------------------------|
 |---------------------------|-------------------------------------------|
 |---------------------------|-------------------------------------------|

[/] ~~~~~~~~~~~
+H +S +S E a +Q +E +E E E Q. +E
 
 |----------------------------------|-----------------------------|
 |-(10)----(10)-(10)-x-12b15==(12)--|-(12)r(12)-10-7-/10----(10)\\-|
 |-------------------x--------------|-----------------------------|
 |----------------------------------|-----------------------------|
 |----------------------------------|-----------------------------|
 |----------------------------------|-----------------------------|
 |----------------------------------|-----------------------------|

\\2.5____
~~~~~~~ ~~
E S S +S S E +E E Q E S S +S S E +S a +E. +Q
 
 |---------------------------|--------------------------------------------|
 |-7p0-9-(9)p0-10-(10)-9-10--|-9p0-10-(10)p0-12-(12)-14b16==(14)r(14)-----|
 |---------------------------|--------------------------------------------|
 |---------------------------|--------------------------------------------|
 |---------------------------|--------------------------------------------|
 |---------------------------|--------------------------------------------|
 |---------------------------|--------------------------------------------|

[/] ~~~~
|--3--|
+Q +E E S a +E. +Q S S S S S S S S S E Q E
 
 |------------------------------------|-12h14p12----12----------12---------[12]-------|
 |-(14)--(14)/-----15b17==(15)-(15)r--|----------15----15-12-15----15b15.5------------|
 |------------------------------------|------------------------------------------x----|
 |------------------------------------|-----------------------------------------------|
 |------------------------------------|-----------------------------------------------|
 |-------------0----------------------|-----------------------------------------------|
 |------------------------------------|-----------------------------------------------|

[a] [E] [E] [a] [E] [E] [a] [E] [E] [a] [E] [E]  
 
 |---------12-------------12-------------12-------------12-----|
 |-15b17==(15)r-0-15b17==(15)r-0-15b17==(15)r-0-15b17==(15)r-0-|
 |-------------------------------------------------------------|
 |-------------------------------------------------------------|
 |-------------------------------------------------------------|
 |-------------------------------------------------------------|
 |-------------------------------------------------------------|

\\7___________________
~~~
H. +Q W +W
 
 |--------------------|------------|--------|
 |-17b19=======(17)r--|------------|--------|
 |-16b18=======(16)r--|------------|--------|
 |--------------------|------------|--------|
 |--------------------|------------|--------|
 |--------------------|------------|--------|
 |--------------------|-0----------|-(x)----|

|
~~~~~~~~~~~~~~~~~~~~~~~~~~~~~
+W +W +W W
 
 |------------|------------|------------|------|
 |------------|------------|------------|------|
 |------------|------------|------------|------|
 |------------|------------|------------|------|
 |------------|------------|------------|------|
 |------------|------------|------------|------|
 |-(x)--------|-(x)--------|-(x)--------|------|

Verse 3
|--3--|
W Q Q Q H E E E E E E Q
 
 |----------|-----------------||-----0-------0--|
 |----------|-----------------||-----2-------2--|
 |----------|-----------------||-----2-------2--|
 |----------|-x\\-x\\-x\\--------||-------------2--|
 |----------|----------11\\----||----------------|
 |----------|-----------------||-2-----2--------|
 |----------|-----------------||-0-----0---0----|

~~~
a Q a Q +E a Q.
 
 |----------------------------------------------|
 |---------12----------4---(4)----------12------|
 |-14b16==(14)r--6b8==(6)--(6)r-14b16==(14)r----|
 |----------------------------------------------|
 |----------------------------------------------|
 |----------------------------------------------|
 |----------------------------------------------|

~~~~~ ~~~~~~~~~~
Q E E +Q Q E E E E Q Q E E E E E E Q Q Q Q Q
 
 |----0--------0--|-14-----------------|-------------0--|-------------------|
 |----2--------2--|----12---14-14------|-----2-------2--|-16--10--15--------|
 |----2--------2--|--------------------|-----2-------2--|-------------------|
 |-------------2--|--------------------|-----2-------2--|-------------------|
 |----------------|--------------------|-2-----2--------|-------------------|
 |-2----2---------|----------------10--|-0-----0---0----|-------------------|
 |-0----0-(0)-----|--------------------|----------------|-------------12\\---|

\\0.5____/ \\7
E E E E E E Q a +E Q E +E +E +Q
 
 |-----0-------0--|-----------------------------------------|
 |-----2-------2--|-15b16==(15)r-12--17-----(17)-(17)-(17)--|
 |-----2-------2--|-----------------------------------------|
 |-------------2--|-----------------------------------------|
 |----------------|-----------------------------------------|
 |-2-----2--------|-----------------------------------------|
 |-0-0---0---0----|-----------------------------------------|

H +Q. E Q E E Q Q
 
 |--------------|---------------|
 |-3----(3)-----|---------------|
 |-2----(2)---0-|---------------|
 |-0----(0)-----|-2---------7\\--|
 |-0----(0)-----|-2------7--7\\--|
 |--------------|-0--0-3S5------|
 |-3----(3)-----|---------------|

E E E E E E Q a E a E a Q a E a E a Q
 
 |-----0-------0--|--------14----------11----------12----------14----------11----------12----|
 |-----2-------2--|-17b19=(17)r-14b16=(14)r-15b17=(15)r-17b19=(17)r-14b16=(14)r-15b17=(15)r--|
 |-----2-------2--|--------------------------------------------------------------------------|
 |-------------2--|--------------------------------------------------------------------------|
 |----------------|--------------------------------------------------------------------------|
 |-2-----2--------|--------------------------------------------------------------------------|
 |-0-----0---0----|--------------------------------------------------------------------------|

Q a Q a Q E E +Q a Q a Q +E E
 
 |----------------------------------|------------------------------------------|
 |-3-----------9-----------7--------|--------------10-------------9------------|
 |-2--11b13==(11)r--9b11==(9)r------|------12b14==(12)r--11b13==(11)--(11)r\\---|
 |-0----------------------------0-2-|-(2)--------------------------------------|
 |-0----------------------------0-2-|-(2)--------------------------------------|
 |--------------------------------0-|-(0)--------------------------------------|
 |-3--------------------------------|----------------------------------------3-|

Q a Q a Q E E +Q a Q a Q +E E
 
 |----------------------------------|------------------------------------------|
 |-3-----------9-----------7--------|--------------10------------12----------3-|
 |-2--11b13==(11)r--9b11==(9)r------|------12b14==(12)r--14b16==(14)--(14)r\\-2-|
 |-0----------------------------0-2-|-(2)--------------------------------------|
 |-0----------------------------0-2-|-(2)--------------------------------------|
 |--------------------------------0-|-(0)--------------------------------------|
 |-3--------------------------------|------------------------------------------|

Q a Q a Q E E +Q a Q a Q Q
 
 |-------------9-------------7--------|--------------10------------12-----------|
 |-3--12b14==(12)r--10b12==(10)r------|------13b15==(13)r--15b17==(15)r---------|
 |-2----------------------------------|-----------------------------------------|
 |-0--------------------------------2-|-(2)-------------------------------------|
 |-0--------------------------------2-|-(2)-------------------------------------|
 |--------------------------------0-0-|-(0)-------------------------------------|
 |-3----------------------------------|----------------------------------12\\----|

H.=H
~~~~~~~~~~~~~~~
Q Q Q Q Q Q Q Q W +H. +Q Q Q H
 
 |-------------|----------------|-0--------|-(0)-----------|-12\\----------*|
 |----3-----3--|----------------|-2--------|-(2)------(2)S=|=14\\----------*|
 |-2-----2-----|----------------|-2--------|-(2)------(2)S=|=14\\----------*|
 |-0-----0-----|-----2---7--7\\--|-2--------|-(2)------(2)S=|=14\\----------*|
 |-0-----------|-2--------------|-2--------|-(2)-----------|-14\\----------*|
 |-------------|-0--(0)--5------|----------|---------------|--------------*|
 |-3-----------|----------------|-0--------|-(0)-----------|--------------*|


Important: The song above is NOT stored on the Chordie server. The original song is hosted at www.xguitar.com. Chordie works as a search engine and provides on-the-fly formatting. Chordie does not index songs against artists'/composers' will. To remove this song please click here.

Text color:
Chord color:
Chord grids: 
Font size:    
Page size: 

E
Rate #4 of 4 versions

Jango Player

Login - add to songbook

SHARE PAGE  




You need to log in to post comments