Guitar Tabs, Chords and Lyrics
Major upgrade!! After one year development the new version of Chordie is now online! Please give feedback.


Blowfish   Steve Vai

 
 |-----------|-----------------------|--------------------------|--------------
 |-----------|-----------------------|--------------------------|--------------
 |-----------|-----------------------|--------------------------|--------------
 |-----------|-----------------------|--------------------------|--------------
 |-----------|---3-4-5-3---3-4-5-3---|---3-4-5-3---3-5----------|---3-4-5-3----
 |-x\\--x\\--x\\|-5---------5---------5-|-5---------5------3-(5)-5-|-5------------

 


 


 [b2] [b2] [b1]  

 
 -------------------|---------------------------|-------------------------|----
 -------------------|---------------------------|-------------------------|----
 -------------------|---------------------------|-------------------------|----
 -------------------|---------------------------|-----------------------9-|----
 --3-5----5-(7)-3---|---3-5-(7)-5-3---3-5-------|-----------------------7-|----
 5-----3----------5-|-5-------------5-----3-(5)-|-0-3-4-5-3-0-3-4-5-3-0---|----

 


 


 [b2] [b2]  

 
 --------------------|-----------------------------|---------------------------
 --------------------|-----------------------------|---------------------------
 --------------------|-----------------------------|---------------------------
 --------------------|---5-6-7-5---5-7---7-(9)-5---|---------------------------
 ------------5-5-5-7-|-7---------7-----5---------7-|-----------------5-5-5-5---
 0-3-4-5-3-0-5-5-5-7\\|-----------------------------|-0-3-5-(7)-5-3-0-5-5-5-----

 


 


 [b1] [b2]  

 
 -------------------------------------------|------------------------------|---
 -------------------------------------------|------------------------------|---
 -------------------------------------------|------------------------------|---
 -------------------------------------------|------------------------------|---
 --3---3-4-5-3-------3-4-5-3---3-5----------|---3-4-5-3---3-5----5-(7)-3---|---
 ----5---------5---5---------5------3-(5)-5-|-5---------5-----3----------5-|---

 


 


 b1 End RiffA b1 b1 b1


 

 
 ------------------------------||----------------------------------------------
 ------------------------------||----------------------------------------------
 ------------------------------||*-2-2-------2-----2-2-------2-----2-2---------
 ------------------------------||*-2-2-------2-----2-2-------2-----2-2---------
 --3-5-(7)-5-3---3-5-----------||--0-0-------0-x-x-0-0-------0-x-x-0-0---------
 5-------------5-----3-(4)-(5)-||------3-(5)-----------3-(5)-----------3-(5)---

 


 


 Part1---->


 b1 b1 rb


 

 
 ---------------||-------------------------------|-----------------------------
 ------3-3------||-10---10-10-8-10---------------|-12-(13)-12-10---------3-3---
 2-----2-2-0-0-*||-------------------2-2-------2-|---------------12-12---2-2---
 2-----0-0-0-0-*||-------------------2-2-------2-|-----------------------0-0---
 0-x-x-----2-2--||-------------------0-0-------0-|-----------------------------
 ----------3-3--||-----------------------3-(5)---|-----------------------------

 


 


 b2 b1 b1 rb


 

 
 ----|-------------------------------------|-14-(15)-14p12---------------------
 ----|-13-15-15-(17)-13-13-----------------|---------------13--------3-3-------
 0-0-|-------------------------2-2-------2-|------------------12-----2-2-0-0---
 0-0-|-------------------------2-2-------2-|-------------------------0-0-0-0---
 2-2-|-------------------------0-0-------0-|-----------------------------2-2---
 3-3-|-----------------------------3-(5)---|-----------------------------3-3---
 |-----------------------------------------------------------------------------
 |----/14-14-12-14-15-14h15p14p12----------------------------------------------
 |----------------------------------12/14--------------------------------------
 |-4---------------------------------------/16-14h16p14-12-14/16-12-14\\--------
 |-4-------------------------------------------------------------------14-12---
 |-2---------------------------------------------------------------------------

 


 


 [b2]  

 
 |------------------------------------|----------------------------------------
 |/14-14-12-14-15/17-17-15-17-(19)~~~-|----------------------------------------
 |------------------------------------|----------------------12----------------
 |------------------------------------|-14----------12-14-------12-13-14-------
 |------------------------------------|----12-13-14-------14-------------------
 |------------------------------------|----------------------------------------

 


 


 Play half Riff A and then


 repeat Part1 with wha.


 End Part1. Then there is a solo-bit


 I won't Tab!After the solo


 comes the following:


 

 
 ---16-17-18-19/22-22-22-22-22-22---|----------------------------|------------
 17---------------------------------|-----------------------------|------------
 -----------------------------------|-----------------------------|-2~~~-4-2---
 -----------------------------------|-----------------------------|------------
 -----------------------------------|-----------------------------|------------
 -----------------------------------|-----------------------------|------------
 ------------------------------------------------------------------------------
 ------------10~~~-12-10-12/14---10/17~~~-17-(19)~~~-17------------------------
 4/6---2/9------------------------------------------------14/16--/16-14-14-----
 ------------------------------------------------------------------------------
 ------------------------------------------------------------------------------
 ------------------------------------------------------------------------------
 NH:---------------------------------|
 --------19-----------------|-12----7---5-----7---5-----------------|----------
 17-(19)----17--------------|----12---7---5-----7---5-----5---------|----------
 ----------------14/16--/16-|-------------------------5-----5-------|----------
 ---------------------------|---------------------------5-----5-----|----------
 ---------------------------|-----------------------------------5---|----------
 ---------------------------|-------------------------------------5-|----------


Important: The song above is NOT stored on the Chordie server. The original song is hosted at www.xguitar.com. Chordie works as a search engine and provides on-the-fly formatting. Chordie does not index songs against artists'/composers' will. To remove this song please click here.

This song is displayed as text-only. Transposing and tuning is only available for chordpro-songs.
Rate #3 of 3 versions

Jango Player

Login - add to songbook

SHARE PAGE  



You need to log in to post comments