Guitar Tabs, Chords and Lyrics
Major upgrade!! After one year development the new version of Chordie is now online! Please give feedback.


4000 Rainy Nights   Stratovarius

 
 e(------------------------------------------------------------)
 B(-12(13)-12-8---/10=---12-12(13)-12-8------------------------)
 G(-------------9-----------------------9(10)-9-5=-------------)
 D(--------------------------------------------------9=---7=---)
 A(------------------------------------------------------------)
 E(------------------------------------------------------------)

 


 [b] [b] [b] 


 


 Riff 2


 


 

 
 e(--------------------------------------------------------
 B(-12(13)-12-8---/10=---12-12(13)-12-8--------------------
 G(-------------9-----------------------9-10(12)-10-9-7=---
 D(--------------------------------------------------------
 A(--------------------------------------------------------
 E(--------------------------------------------------------

 


 [b] [b] [b] 


 

 
 e(------------------------------------------------)------
 B(-12-12(13)-12-8---/10=---10-8=------------------)------
 G(----------------9----------------10-9-7=--------)------
 D(-------------------------------------------10-9-)-7=---
 A(------------------------------------------------)------
 E(------------------------------------------------)------

 


 [b]  


 


 Verse


 Riff 3 (clean, let ring) (2x)


 


 

 
 e(----------------------------------------------------3=---
 B(-------1-0=---------1-0=---------1-0=---------1-0-1------
 G(---------------------------------------------------------
 D(----2=-----------2=-----------2=-----------2=------------
 A(-0=-----------3=-----------0=-----------3=---------------
 E(---------------------------------------------------------

 


 


 1st ending 2nd ending


 

 
 e(-------------------------------------------------------)---3=-----)
 B(-------1-0=---------1-0=------------3=------------3=---)---3=-----)
 G(-------------------------------------------------------)---0=-----)
 D(----2=-----------2=--------------0=------------0=------)---0=-----)
 A(-0=-----------3=--------------2=------------2=---------)---2=-----)
 E(---------------------------3=------------3=------------)---3=-----)

 


 


 Chorus


 Riff 4


 


 

 
 e(-------------------------------------------------------------------)
 B(-------------------------------------------------------------------)
 G(-----------2=-----------------5-5----------------2=---4------------)
 D(-------5-2-2=-------------5-2-5-5-5=---------5-2-2=---4-5=---7/-5=-)
 A(-2-3-2-----0=---0-0-2-3-2-----3-3-5=---2-3-2-----0=---2-5=---7/-5=-)
 E(----------------------------------3=--------------------3=---5/-3=-)

 


 P.M. . .


 


 Guitar Solo 1


 


 

 
 e(--------------------------------------------------------)
 B(--------------------------------10-12-12(13)=-12=-8-10=-)
 G(-7(9)-7-5-7-9=---9-7=---12-9=---------------------------)
 D(--------------------------------------------------------)
 A(--------------------------------------------------------)
 E(--------------------------------------------------------)

 


 [b] [b] 


 Verse 2 - Riff 3 (with 2nd ending)


 Chorus - Riff 4 (2x)


 


 Guitar Solo 2


 Rhythm Part a (3x)


 


 

 
 e(-------------------------------------------------------)
 B(-------------------------------------------------------)
 G(-------------------------------------------------------)
 D(-7------7------7------7/-5/-3------3------3------3/-5/-)
 A(-7------7------7------7/-5/-3------3------3------3/-5/-)
 E(-5--5-5-5--5-5-5--5-5-5/-3/-1--1-1-1--1-1-1--1-1-1/-3/-)

 


 P.M. . . . . . . . . . . . .


 


 Rhythm Part b


 


 

 
 e(---------------------------------------------------)
 B(---------------------------------------------------)
 G(---------------------------------------------------)
 D(---5-5-5-5-5-5-5-5---------------------------------)
 A(---5-5-5-5-5-5-5-5-5-5-5-5-5-5-5-5-5-5-5-5-5-5-5-5-)
 E(---3-3-3-3-3-3-3-3-3-3-3-3-3-3-3-3-3-3-3-3-3-3-3-3-)

 


 P.M. . . . . . . . . . . . . . . . . . . . . . . . .


 


 Outro


 Riff 5 (3x)


 fade out


 

 
 e(-------------------------------------------------------------------)
 B(-------------------------------------------------------------------)
 G(-----------4=-----------------7-7----------------4=---6------------)
 D(-------7-4-4=-------------7-4-7-7-7=---------7-4-4=---6-7=---9/-7=-)
 A(-4-5-4-----2=---2-2-4-5-4-----5-5-7=---4-5-4-----2=---4-7=---9/-7=-)
 E(----------------------------------5=--------------------5=---7/-5=-)

 


 P.M. . .


 


 Epilog


 Riff 6 (clean)


 fade up


 

 
 e(-------------------------------------(---------------------------
 B(-------------------------------------(---------------------------
 G(-------------------------------------(---4-4-4-4-4---------------
 D(---5-5-5-5-5---7-7-7-7-7-7-7-7-7-7---(---4-4-4-4-4---5-5-5-5-5---
 A(---5-5-5-5-5---7-7-7-7-7-7-7-7-7-7---(---2-2-2-2-2---5-5-5-5-5---
 E(---3-3-3-3-3---5-5-5-5-5-5-5-5-5-5---(---------------3-3-3-3-3---

 


 Acc. x x x x x x x x x x x x x x x


 


 fade out


 

 
 e(-----------------------------------------------------------------)
 B(-----------------------------------------------------------------)
 G(---4-4-4-4-4---7-7-----------4-4-4-4-4---------------------------)
 D(---4-4-4-4-4---7-7---7-7-7---4-4-4-4-4---5-5-5-5-5---7-7-7-7-7---)
 A(---2-2-2-2-2---5-5---7-7-7---2-2-2-2-2---5-5-5-5-5---7-7-7-7-7---)
 E(---------------------5-5-5---------------3-3-3-3-3---5-5-5-5-5---)


Important: The song above is NOT stored on the Chordie server. The original song is hosted at www.xguitar.com. Chordie works as a search engine and provides on-the-fly formatting. Chordie does not index songs against artists'/composers' will. To remove this song please click here.

This song is displayed as text-only. Transposing and tuning is only available for chordpro-songs.
Rate #1 of 1 versions

Login - add to songbook

SHARE PAGE  




You need to log in to post comments