Guitar Tabs, Chords and Lyrics
Major upgrade!! After one year development the new version of Chordie is now online! Please give feedback.


Destiny   Stratovarius

 
 e(-------------------------------)------------------------
 B(-------------------------------)------------------------
 G(--------5=---------------------)------------------------
 D(---2=---5=---2=---7=---7/-9=---)---7=---4=-------2===---
 A(---2=---3=---2=---7=---7/-9=---)---7=---4=-------2===---
 E(---0=--------0=---5=---5/-7=---)---5=---2=---2-3-0===---

 


 P.M. . .


 


 Main Theme (Choir and Keyboards)


 


 Main Theme


 Riff 2 (2x)


 


 

 
 e(---------------------------------------------------------------
 B(-10(12)=-10-8-7------12(13)=-12-10-8-------10(12)=-10-8-7------
 G(----------------9=-------------------11=------------------9=---
 D(---------------------------------------------------------------
 A(---------------------------------------------------------------
 E(---------------------------------------------------------------

 


 [b] [b] [b] 


 


 

 
 e(--------------------)-----------------
 B(--8(10)=-8-7-5------)---5=---7-8-5=---
 G(---------------8=---)-----------------
 D(--------------------)-----------------
 A(--------------------)-----------------
 E(--------------------)-----------------

 


 [b]  


 


 Verse


 Riff 3 (2x)


 


 

 
 e(-----------------------------------------------------------------
 B(-----------------------------------------------------------------
 G(-----------------------------------------------------------------
 D(---2=---7-------------------------2=---7-------------------------
 A(---2=-----7-7-10-7-7-9-7-7-10-7-7-2=-----7-7-10-7-7-9-7-7-10-7-7-
 E(---0=-----------------------------0=-----------------------------

 


 P.M. . . . . . . . . . . . . . . . .


 


 

 
 e(--------------------------------------------)
 B(--------------------------------------------)
 G(----------------------------------5=---4=---)
 D(---2=---7-------------------------5=---4=---)
 A(---2=-----7-7-10-7-7-9-7-7-10-7-7-3=---2=---)
 E(---0=---------------------------------------)

 


 P.M. . . . . . . . .


 


 Pre-Chorus


 Riff 4


 


 

 
 e(---------------------------------------------------------)
 B(---------------------------------------------------------)
 G(-------------7=--------------7=----5=-------4=---5=-7=---)
 D(---7=---5=---7=-----------7=-7=-5=-5=-7=----4=---5=-7=---)
 A(---7=---5=---5=---------2-7=-5=-5=-3=-7=----2=---3=-5=---)
 E(---5=---3=--------0-2-4---5=----3=----5=-2=--------------)

 


 


 Chorus


 Riff 5


 


 

 
 e(---------------------------------------------------------------------)
 B(---------------------------------------------------------------------)
 G(-9=--------7=-------4/-5=--------4=---7=--------7=--------4=---5=-/7-)
 D(-9=---5=---7=---2=--4/-5=---5=---4=---7=---5=---7=---2=---4=---5=-/7-)
 A(-7=---5=---5=---2=--2/-3=---5=---2=---5=---5=---5=---2=---2=---3=-/5-)
 E(------3=--------0=----------3=-------------3=--------0=--------------)

 


 


 Main Theme - Riff 2 (2x)


 Verse 2 - Riff 3 (2x)


 Pre-Chorus - Riff 4


 Chorus - Riff 5


 


 Bridge 1


 Riff 6 (4x)


 


 

 
 e(-----------------------------------------------------------)
 B(-----------------------------------------------------------)
 G(-----------------------------------------------------------)
 D(-----------------------------------------------------------)
 A(-----------------------------------------------------------)
 E(---0--0-0-0--0-0-0--0-0-0--0-0-0--0-0-0--0-0-0--0-0-0--0-0-)

 


 P.M. . . . . . . . . . . . . . . . . . . . . . . . .


 


 Interlude


 (Guitar and Keyboards)


 


 

 
 e(-----------------------------------------------------------------
 B(---12-10-12---12-10-12---12-10-12---12-10-12---10-9-10---10-9-10-
 G(-9----------9----------9----------9----------8---------8---------
 D(-----------------------------------------------------------------
 A(-----------------------------------------------------------------
 E(-----------------------------------------------------------------
 e(-----------------------------------------------------------------
 B(---10-9-10---10-9-10---12-10-12---12-10-12---12-10-12---12-10-12-
 G(-8---------8---------9----------9----------9----------9----------
 D(-----------------------------------------------------------------
 A(-----------------------------------------------------------------
 E(-----------------------------------------------------------------
 e(-------------------------------------------------------------
 B(----13-12-13----13-12-13----13-12-13----13-12-13----15-13-15-
 G(-11----------11----------11----------11----------12----------
 D(-------------------------------------------------------------
 A(-------------------------------------------------------------
 E(-------------------------------------------------------------
 e(-------------------------------------------------------------
 B(----15-13-15----15-13-15----15-13-15----13-12-13----13-12-13-
 G(-12----------12----------12----------11----------11----------
 D(-------------------------------------------------------------
 A(-------------------------------------------------------------
 E(-------------------------------------------------------------
 e(---------------------------------------------------------------------
 B(----13-12-13----13-12-13---12-10-12---12-10-12---12-10-12---12-10-12-
 G(-11----------11----------9----------9----------9----------9----------
 D(---------------------------------------------------------------------
 A(---------------------------------------------------------------------
 E(---------------------------------------------------------------------
 e(-------------------------------------------------------------------
 B(---10-8-10---10-8-10---10-8-10---10-8-10---12-12-12-12-13-13-13-13-
 G(-8---------8---------8---------8-----------------------------------
 D(-------------------------------------------------------------------
 A(-------------------------------------------------------------------
 E(-------------------------------------------------------------------
 e(-11-11-11-11-12-12-12-12-14-14-14-14-15-15-15-15-14-14-14-14-12-12-
 B(-------------------------------------------------------------------
 G(-------------------------------------------------------------------
 D(-------------------------------------------------------------------
 A(-------------------------------------------------------------------
 E(-------------------------------------------------------------------
 e(-12-12-14-14-14-14-12-12-12-12-11-11-11-11-12-12-12-12-11-11-11-11-
 B(-------------------------------------------------------------------
 G(-------------------------------------------------------------------
 D(-------------------------------------------------------------------
 A(-------------------------------------------------------------------
 E(-------------------------------------------------------------------
 e(-------------------------------------)-----------
 B(-13-13-13-13-12-12-12-12-10-10-10-10-)-10(12)=---
 G(-------------------------------------)-----------
 D(-------------------------------------)-----------
 A(-------------------------------------)-----------
 E(-------------------------------------)-----------

 


 [b] 


 Guitar Solo 1 / Keyboard Solo


 Rhythm Part (4x)


 


 

 
 e(------------------------------------------------------------
 B(------------------------------------------------------------
 G(------------------------------------------------------------
 D(------------------------------------------------------------
 A(---2--2-2-2--2-2-2--2-2-2--2-2-2--2-2-2--2-2-2--2-2-2-------
 E(------------------------------------------------------5-3-2-

 


 P.M. . . . . . . . . . . . . . . . . . . . . .


 


 

 
 e(--------------------------------------------------------)
 B(--------------------------------------------------------)
 G(--------------------------------------------------------)
 D(--------------------------------------------------------)
 A(--------------------------------------------------------)
 E(---0--0-0-0--0-0-0--0-0-0--0-0-0--0-0-0--0-0-0--2--3--5-)

 


 P.M. . . . . . . . . . . . . . . . . . . .


 


 Guitar Solo 2


 Guitar 1 - Lead (Top), Guitar 2 - Rhythm (Bottom)


 


 

 
 e(-----------------------------------------20(22)=-20-19-17-19-etc.-----
 B(-5-----8-8-----7-7-10-10-15-15(17)-15-15------------------------------
 G(---4-4-----4-4---7=-----------------------5=-----------------------4=-
 D(-9=--------------7=-----------------------5=-----------------------4=-
 A(-9=--------------5=-----------------------3=-----------------------2=-
 E(-7=-------------------------------------------------------------------

 


 [b] [b] 


 

 
 e(----------------------------------------------------------------------
 B(-5=---7=---8=-------12-13-16-17-17(19)=-17-17-17=-16-16-16=-13-13-13=-
 G(----------------------------------------------------------------------
 D(-2=---4=---5=---4=---------------2===---------------------------------
 A(-2=---4=---5=---4=---------------2===---------------------------------
 E(-0=---2=---3=---2=---------------0===---------------------------------

 


 [b]  


 

 
 e(------------------------------------------)
 B(-12-12-12=-10-10-10=-8-8-8=-7-7-7=--------)
 G(-----------------------------------7-4=---)
 D(------------------------------------------)
 A(------------------------------------------)
 E(------------------------------------------)

 


 


 Bridge 2


 


 

 
 e(----------------------------------)
 B(----------------------------------)
 G(-------4-----4-5---4-5-7-4-5-7/-9-)
 D(-4-5-7---5-7-----7----------------)
 A(----------------------------------)
 E(----------------------------------)

 


 


 Guitar Solo 3


 Guitar 1 - Lead (Top), Guitar 2 - Rhythm (Bottom)


 


 

 
 e(---------------------------------------------------------------------
 B(----12-13-15=---15-13-12-----------------8-10-12=---12-10-8----------
 G(-------------------------14=-11-----------------------------11=-7----
 D(-5=----------------------12=----12=---2=---------------------9=---9=-
 A(-5=----------------------12=----------2=---------------------9=------
 E(-3=----------------------10=----------0=---------------------7=------
 e(-------------------------------------------------------------)-------
 B(----5-7-8=---8-7-5--------------------5-7=-8-10=---15(17)-15-)-15=---
 G(-5=----------------7=-5-4=---2=-4--5=---7=-------7-----------)-------
 D(-5=----------------5=--------7=---10=---7=-------------------)-------
 A(-3=----------------5=--------7=---10=---5=-------------------)-------
 E(-------------------3=--------5=----8=------------------------)-------
 e(-------------------------------------------------------------
 B(-------------------------------------------------------5-7---
 G(--------7=--------4=---5=-------------7=---------4-5-7-------
 D(---5=---7=---2=---4=---5=---5=---7=---7=---4-5-7-------------
 A(---5=---5=---2=---2=---3=---5=---7=---5=---------------------
 E(---3=--------0=-------------3=---5=--------------------------
 e(-------------------------------------------)----------)
 B(-------------------------------------------)----------)
 G(--------7=--------4=---5=--------7=---7=---)----------)
 D(---5=---7=---2=---4=---5=---5=---7=---7=---)---5===---)
 A(---5=---5=---2=---2=---3=---5=---5=---5=---)---5===---)
 E(---3=--------0=-------------3=-------------)---3===---)


Important: The song above is NOT stored on the Chordie server. The original song is hosted at www.xguitar.com. Chordie works as a search engine and provides on-the-fly formatting. Chordie does not index songs against artists'/composers' will. To remove this song please click here.

This song is displayed as text-only. Transposing and tuning is only available for chordpro-songs.
Rate #3 of 4 versions

Jango Player

Login - add to songbook

SHARE PAGE  




You need to log in to post comments