Guitar Tabs, Chords and Lyrics
Major upgrade!! After one year development the new version of Chordie is now online! Please give feedback.


Venus in the Morning  Stratovarius

stratovarius - venus in the morning
Arpeggio
[Am] [F] [Am] [F]  
 
 E-]----------0-------------------3-1--------------0--------------------3-------|
 B-]------------0-1---1---------------0--------------0-1----1-------------------|
 G-]o-------2------------------------------------2------------------------------|
 D-]o-----2---------2--------------------------2----------2---------------------|
 A-]----0---------------------2-3------------0----------------------2-3---------|
 E-]------------------------1-------------------------------------1-------------|

Verse 1
[Am] It's 4 in the [F] mornin[Am]g [F] I'm gazing the sky with Millions of stars
 
 E-]----------0-------------------3-1--------------0--------------------3-1-----|
 B-]------------0-1---1---------------0--------------0-1----1---------------0---|
 G-]o-------2------------------------------------2------------------------------|
 D-]o-----2---------2--------------------------2----------2---------------------|
 A-]----0---------------------2-3------------0----------------------2-3---------|
 E-]------------------------1-------------------------------------1-------------|

Chorus
[G] Where are[F] you now ? [G] [E] Alone just like me Or Venus in the
 
 E-]------------------------1----------------------------------------0----------|
 B-]------------2-------------1------------------------------------0---0--------|
 G-]o---------0---0-------------2------------------0----------------------------|
 D-]o-------0-------------3-------3--------------0---0-----------2--------------|
 A-]------2-------------3----------------------2-------2-------2----------------|
 E-]----3-------------1----------------------3---------------0------------------|

[Am]Morning[F] [Am] [F]
 
 E-]----------0-------------------3-1--------------0--------------------3-1-----|
 B-]------------0-1---1---------------0--------------0-1----1---------------0---|
 G-]o-------2------------------------------------2------------------------------|
 D-]o-----2---------2--------------------------2----------2---------------------|
 A-]----0---------------------2-3------------0----------------------2-3---------|
 E-]------------------------1-------------------------------------1-------------|

|
 
 E-]------------------------5-----3-6--------5--------------------5------3-6---5|
 B-]----------------------------------------------------------------------------|
 G-]o---------------------------------------------------------------------------|
 D-]o---------------------------------------------------------------------------|
 A-]----------------------------------------------------------------------------|
 E-]----------------------------------------------------------------------------|

Keyboard solo
[Am] [F]  
 
 P.M. |--| |--| |--| |--| |--| |--|
 E-]----------------------------------------------------------------------------|
 B-]----------------------------------------------------------------------------|
 G-]o------2--------------------------------------------------------------------|
 D-]o------2-----2-----2-----2---3----------------------------------------------|
 A-]---X\\--0-0-0-0-0-0-0-0-0-0---3--------3-----3-----3-------------------------|
 E-]---X\\------------------------1----1-1-1-1-1-1-1-1-1-------------------------|

Guitar solo
 
 E-]-------------------11-(12)-11-----------------------------------------------|
 B-]----12-(14)~-12~~-------------12-9~----9~-----------------------------------|
 G-]o-----------------------------------11-----11-9-8---------------------------|
 D-]o-------------------------------------------------9-/11~-9-7----7-----------|
 A-]-------------------------------------------------------------11---11-9-7----|
 E-]-------------------------------------------------------------------------11-|

h p p
 
 E-]----------------------------------------------------------------------------|
 B-]--------------------------------------/19~-17-17~-16-16~---14-16-14-13------|
 G-]o---------------------------------------------------------------------------|
 D-]o-----------------------------9---------------------------------------------|
 A-]-------------------11-12-(13)---12~-----------------------------------------|
 E-]-----9-7-9~-11-12~----------------------------------------------------------|
 E-]----------------------------------------------------------------------------|
 B-]-----13-14-16~--14-16-17~---------------------------------------------------|
 G-]o---------------------------------------------------------------------------|
 D-]o---------------------------------------------------------------------------|
 A-]----------------------------------------------------------------------------|
 E-]----------------------------------------------------------------------------|

Interlude
Two times
 
 E-]----------------------------------------------------------------------------|
 B-]----------------------------------------------------------------------------|
 G-]o---------6-6/8~~-6~--------2-2/4~~-2~--------6-6/8~~-9~~-6~~---------------|
 D-]o---------------------------------------------------------------------------|
 A-]------4~----------------------------------4~--------------------------------|
 E-]------------------------5~--------------------------------------------------|

Two times
 
 E-]----------5-5/7~~-5~--------1-1/3~~-1~--------5-5/7~~-8~~-5~~---------------|
 B-]----------------------------------------------------------------------------|
 G-]o---------------------------------------------------------------------------|
 D-]o---------------------------------------------------------------------------|
 A-]------7~----------------3~----------------7~--------------------------------|
 E-]----------------------------------------------------------------------------|

[Am] Forget t[F]he future don't live the past
 
 P.M. |--| |--| |--| |--| |--| |--|
 E-]----------------------------------------------------------------------------|
 B-]----------------------------------------------------------------------------|
 G-]o------2--------------------------------------------------------------------|
 D-]o------2-----2-----2-----2---3----------------------------------------------|
 A-]---X\\--0-0-0-0-0-0-0-0-0-0---3-----3-----3-----3----------------------------|
 E-]---X\\------------------------1-1-1-1-1-1-1-1-1-1----------------------------|

Outtro
[Am] [F] [Am] [F] 
 
 E-]----------0-------------------3-1--------------0--------------------3-1-----|
 B-]------------0-1---1---------------0--------------0-1----1---------------0---|
 G-]o-------2------------------------------------2------------------------------|
 D-]o-----2---------2--------------------------2----------2---------------------|
 A-]----0---------------------2-3------------0----------------------2-3---------|
 E-]------------------------1-------------------------------------1-------------|

|
 
 E-]------------------------5-----3-6--------5--------------------5------3-6---5|
 B-]----------------------------------------------------------------------------|
 G-]o---------------------------------------------------------------------------|
 D-]o---------------------------------------------------------------------------|
 A-]----------------------------------------------------------------------------|
 E-]----------------------------------------------------------------------------|

</BODY></HTML>

Important: The song above is NOT stored on the Chordie server. The original song is hosted at www.xguitar.com. Chordie works as a search engine and provides on-the-fly formatting. Chordie does not index songs against artists'/composers' will. To remove this song please click here.

Text color:
Chord color:
Chord grids: 
Font size:    
Page size: 

Am E F G
Rate #3 of 5 versions

Login - add to songbook

SHARE PAGE  




You need to log in to post comments