Guitar Tabs, Chords and Lyrics
Major upgrade!! After one year development the new version of Chordie is now online! Please give feedback.


4th Reich  Stratovarius

Location: Season of Change - http://www.sci.fi/~jnevala/stratovarius/
4th Reich
Tabbed by Landis Bender
landis_bender@yahoo.com
E (gtr 1 - power choEds) C C
 
 E---||----------|---------|---------|-----------|-----------
 B---||----------|---------|---------|-----------|-----------
 G---||*---------|---------|---------|-----------|-----------
 D---||*--/9-5---|-7-4-----|--/9-5---|-7-4---5-5-|-----------
 A---||--------7-|-----5-3-|-------7-|-----5-3-3-|-----------
 E---||----------|---------|---------|-----------|-----------

[E] [D] [C#] [C] [E]  
 
 E-----------|---------|---------|----------||-|-------------
 B-----------|---------|---------|----------||-|-------------
 G-----------|---------|---------|---------*||-|-------------
 D----/9-5---|-7-4-----|---5-4-5-|-2-------*||-|-------------
 A---------7-|-----5-4-|-3-------|-2--------||-|-------------
 E-----------|---------|---------|-0--------||-|-------------

Clean Tone 7x
 
 E---||--0---7---5---7---3---5---2---3----||-|---------------
 B---||----0---0---0---0---0---0---0---0--||-|---------------
 G---||*---------------------------------*||-|---------------
 D---||*---------------------------------*||-|---------------
 A---||-----------------------------------||-|---------------
 E---||-----------------------------------||-|---------------
 E---0---7---5---7---10---8---7---5---|----------------------
 B-----0---0---0---0----0---0---0---0-|----------------------
 G------------------------------------|----------------------
 D------------------------------------|----------------------
 A------------------------------------|----------------------
 E------------------------------------|----------------------

Distorted Tone
 
 E---||--------------------------------------|---------------
 B---||--------------------------------------|---------------
 G---||*-------------------------------------|---------------
 D---||*-----9-9-10-10-7-7-9-9-------7-7-----|---------------
 A---||--7-7-------------------10-10-----9-9-|---------------
 E---||--------------------------------------|---------------
 E---------------------------------------|-------------------
 B---------------------------------------|-------------------
 G---------------------------------------|-------------------
 D-------9-9-10-10-7-7-9-9-------7-7-----|-------------------
 A-------------------------10-10-----9-9-|-------------------
 E---8-8---------------------------------|-------------------
 E---------------------------------------|-------------------
 B---------------------------------------|-------------------
 G---------------------------------------|-------------------
 D-------9-9-10-10-7-7-9-9-------7-7-----|-------------------
 A---0-0-------------------10-10-----9-9-|-------------------
 E---------------------------------------|-------------------

First time only
 
 E----------------------------------------||-----------------
 B----------------------------------------||-----------------
 G---------------------------------------*||-----------------
 D-------9-9-10-10-7-7-9-9-------7-7-----*||-----------------
 A---5-5-------------------10-10-----9-9--||-----------------
 E----------------------------------------||-----------------

On repeat Clean Tone
 
 E-----------------------------------------|---0-----|-------
 B-----------------------------------------|---0-----|-------
 G-----------------------------------------|---9-----|-------
 D-------9-9-10-10-7-7-12-12-10-10-9-9-7-7-|---9-----|-------
 A---5-5-----------------------------------|---7-----|-------
 E-----------------------------------------|---------|-------
 E-------0-|-------|-----------------------------------------
 B-------0-|-------|-----------------------------------------
 G-------9-|-------|-----------------------------------------
 D-------9-|-------|-----------------------------------------
 A-------7-|-------|-----------------------------------------
 E---------|-------|-----------------------------------------

Sign of the times and writing
 
 E---0---------|-----------------|---------------------------
 B---0---------|-----------------|---------------------------
 G---9---------|-----------------|---------------------------
 D---9---------|-----------------|---------------------------
 A---7---------|-----------------|---------------------------
 E-------------|-----------------|---------------------------

they show me its time has
 
 E---------0---------------------0---------------------------
 B---------0---------------------0---------------------------
 G---------5---------------------9---------------------------
 D---------5---------------------9---------------------------
 A---------3---------------------7---------------------------
 E-----------------------------------------------------------

Order of a new kind we will all find
 
 E---||----0-------------0-------------0---------------------
 B---||----0-------------0-------------0---------------------
 G---||*---9-------------9-------------5---------------------
 D---||*---9-------------9-------------5---------------------
 A---||----7-------------7-------------3---------------------
 E---||------------------------------------------------------

stronger than ever beforRiff 1
 
 E---------------------0---|-------------------------|-------
 B---------------------0---|-------------------------|-------
 G---------------------9---|-9-----9-----9-----9-----|-------
 D---------------------9---|-9-----9-----9-----9-----|-------
 A---------------------7---|-7-----7-----7-----7-----|-------
 E-------------------------|---0-0---0-0---0-0---0-0-|-------

Like in year thirty eigh
 
 E-----------------------------|-----------------------------
 B-----------------------------|-----------------------------
 G-----------9-----9-----9-----|-----------------------------
 D---7p9-----9-----9-----9-----|-----------------------------
 A---7-------7-----7-----7-----|-----------------------------
 E-------0-0---0-0---0-0---0-0-|-----------------------------

Oh wont we Ever
 
 E-------------------------------|---------------------------
 B-------------------------------|---------------------------
 G----------9------9------9------|---------------------------
 D---10-----10-----10-----10-----|---------------------------
 A---10-----10-----10-----10-----|---------------------------
 E---8--8-8----8-8----8-8----8-8-|---------------------------

learn
 
 E-------------------------------|---------------------------
 B-------------------------------|---------------------------
 G---9-----9---------------------|---------------------------
 D---9-----9-------5-------7---7-|---------------------------
 A---7-----7-------3---5---5---5-|---------------------------
 E-----0-0---0-0-0---0-3-0---0---|---------------------------

This time itgonna be diffeSo let's all join our hands
 
 E---------------------------|-------------------------|-----
 B---------------------------|-------------------------|-----
 G---9-----9-----9-----9-----|-9-----9-----9-----9-----|-----
 D---9-----9-----9-----9-----|-9-----9-----9-----9-----|-----
 A---7-----7-----7-----7-----|-7-----7-----7-----7-----|-----
 E-----0-0---0-0---0-0---0-0-|---0-0---0-0---0-0---0-0-|-----

And let the children
 
 E-------------------------------|---------------------------
 B-------------------------------|---------------------------
 G----------9------9------9------|---------------------------
 D---10-----10-----10-----10-----|---------------------------
 A---10-----10-----10-----10-----|---------------------------
 E---8--8-8----8-8----8-8----8-8-|---------------------------

Sing for the last time
 
 E---------------------------|---------------------|---------
 B---------------------------|---------------------|---------
 G---9-----9-----9-----9-----|-------5-------------|---------
 D---9-----9-----9-----9-----|-----5---5-4-5-4---5-|---------
 A---7-----7-----7-----7-----|---3-------------5-3-|---------
 E-----0-0---0-0---0-0---0-0-|---------------------|---------

Fourth Reich is Rising(CHORUS)
 
 E-------------------------|-------------------------|-------
 B-------------------------|-------8---8-8-----7---7-|-------
 G-----------------------\-|-------9---9-9-----7---7-|-------
 D---5-------------------\-|-9-----9---9-9-----7---7-|-------
 A---3-------------------\-|-7-----7---7-7-----5---5-|-------
 E-------------------------|-0-0-0---------0-0-------|-------
 E-------------------|-------------------------|-------------
 B---7-----8---8-8---|-8-\-7-------------------|-------------
 G---7-----9---9-9---|-9-\-7-------5-----------|-------------
 D---7-----9---9-9---|-9-\-7-----5---5-4-------|-------------
 A---5-----7---7-7---|-7-\-5---3---------5-3-2-|-------------
 E-----0-0-----------|-------------------------|-------------

Fourth Reich is Rising
 
 E-------------------------|---------------------------|-----
 B-------------------------|---------8---8-8-----7---7-|-----
 G-----------------------\-|---------9---9-9-----7---7-|-----
 D-----------------------\-|-9-------9---9-9-----7---7-|-----
 A---3-------------------\-|-7-------7---7-7-----5---5-|-----
 E-------------------------|-0-0-0-----------0-0-------|-----

(End of Chorus)
 
 E-----------------------------------|-----------------------
 B---7-----8---8-8-------------------|-----------------------
 G---7-----9---9-9-------------------|-----------------------
 D---7-----9---9-9-5-5---7-7---5---7-|-----------------------
 A---5-----7---7-7-3-3-5-5-5---3-5-5-|-----------------------
 E-----0-0-------------3---------3---|-----------------------

Repeat Riff 1 and Chorus
 
 E-------------------------|---------------------------------
 B-------------------------|---------------------------------
 G-------------------------|---------------------------------
 D-------------------------|---------------------------------
 A-------------------------|---------------------------------
 E-------------------------|---------------------------------

What Will Be
 
 E-----------------------------------|-----------------------
 B-----------------------------------|-----------------------
 G-----------------------------------|-----------------------
 D---5-------5-------5-------5-------|-----------------------
 A---3-3-3-3-3-3-3-3-3-3-3-3-3-3-3-3-|-----------------------
 E-----------------------------------|-----------------------

Left of our Ch
 
 E-----------------------------------|-----------------------
 B-----------------------------------|-----------------------
 G---2-------------------------------|-----------------------
 D---2-------2-------2-------2-------|-----------------------
 A---0-0-0-0-0-0-0-0-0-0-0-0-0-0-0-0-|-----------------------
 E-----------------------------------|-----------------------
 E-------------------------------|---------------------------
 B-------------------------------|---------------------------
 G-------------------------------|---------------------------
 D---9---------9-7-9-----5h7-----|---------------------------
 A---7---------7-5-7-5h7-----5h7-|---------------------------
 E---0-----0-0-------------------|---------------------------
 E-------------------------------|---------------------------
 B-------------------------------|---------------------------
 G-------------------------------|---------------------------
 D---9---------9---9-----5h7-----|---------------------------
 A---7---------7---7-5h7-----5h7-|---------------------------
 E---0-----0-0---0---------------|---------------------------

Is this our
 
 E-----------------------------------|-----------------------
 B-----------------------------------|-----------------------
 G-----------------------------------|-----------------------
 D---5-------5-------5-------5-------|-----------------------
 A---3-3-3-3-3-3-3-3-3-3-3-3-3-3-3-3-|-----------------------
 E-----------------------------------|-----------------------

Fi nal des ti
 
 E-----------------------------------|-----------------------
 B-----------------------------------|-----------------------
 G-----------------------------------|-----------------------
 D---2-------2-------2-------2-------|-----------------------
 A---0-0-0-0-0-0-0-0-0-0-0-0-0-0-0-0-|-----------------------
 E-----------------------------------|-----------------------

ny
 
 E-----------------------------------|-----------------------
 B-----------------------------------|-----------------------
 G-----------------------------------|-----------------------
 D---4-------4-------4-------4-------|-----------------------
 A---2-2-2-2-2-2-2-2-2-2-2-2-2-2-2-2-|-----------------------
 E-----------------------------------|-----------------------
 E-----------------------------------|-----------------------
 B-----------------------------------|-----------------------
 G-----------------------------------|-----------------------
 D---5-------5-------7-------7-------|-----------------------
 A---3-3-3-3-3-3-3-3-5-5-5-5-5-5-5-5-|-----------------------
 E-----------------------------------|-----------------------

Solo uses this rhythm progression
 
 E---||-------------------------||-|-------------------|-----
 B---||-------------------------||-|-------------------|-----
 G---||*-9-----5-------2-----7-*||-|-----5-------------|-----
 D---||*-9-----5-------2-----7-*||-|---5---5-4-5-4---5-|-----
 A---||--7-----3-------0-----5--||-|-3-------------5-3-|-----
 E---||--0----------------------||-|-------------------|-----

Repeat chorus until end
 
 E-----------------------------|-----------------------------
 B-----------------------------|-----------------------------
 G-----------------------------|-----------------------------
 D---5-------------------------|-----------------------------
 A---3-------------------------|-----------------------------
 E-----------------------------|-----------------------------

============================================================
== Created with a demo version of BUCKET O' TAB ==
== tablature creation software for Windows ==
== http://www.his.com/~gse/bucket ==
============================================================

Important: The song above is NOT stored on the Chordie server. The original song is hosted at www.xguitar.com. Chordie works as a search engine and provides on-the-fly formatting. Chordie does not index songs against artists'/composers' will. To remove this song please click here.

Text color:
Chord color:
Chord grids: 
Font size:    
Page size: 

C C# D E
Rate #2 of 4 versions

Jango Player

Login - add to songbook

SHARE PAGE  



You need to log in to post comments