Guitar Tabs, Chords and Lyrics
Major upgrade!! After one year development the new version of Chordie is now online! Please give feedback.


Wings of Tomorrow   Stratovarius

 
 ---------------------

 


 by Stratovarius


 


 >From album "Dreamspace"


 Tabbed by Sami Rikala


 


 Tune 1/2 step down


 


 keyboards 42.s guitar with keyb. p.m p.m p.m


 


 

 
 p.m |---| |---| |---|
 |---------------|--------|---|------------------------------------------------------------------|
 |---------------|-------------------------------------------------------------------------------|
 |---------------|-------------------------------------------------------------------------------|
 |---------------|--7----------7------7----------7------------------------4----------4-----------|
 |---------------|--5------5-5-5------5------5-5-5------5----------5------2------2-2-2-----------|
 |---------------|--------------------------------------3------3-3-3-----------------------------|

 


 


 p.m p.m p.m p.m p.m p.m p.m p.m p.m p.m p.m


 


 

 
 |---| |---| |---| |---| |---| |---| |---| |---| |---| |---| |---|
 |-----------------------------------------------------------------------------------------------|
 |-----------------------------------------------------------------------------------------------|
 |-----------------------------------------------------------------------------------------------|
 |-7-------7-------7-------7-------7-------7-------7-------7-------7-------7-------7-------7-----|
 |-5---5-5-5---5-5-5---5-5-5---5-5-5---5-5-5---5-5-5---5-5-5---5-5-5---5-5-5---5-5-5---5-5-5-----|
 |-----------------------------------------------------------------------------------------------|

 


 


 p.m p.m p.m p.m p.m p.m p.m p.m p.m p.m p.m p.m


 


 

 
 |---| |---| |---| |---| |---| |---| |---| |---| |---| |---| |---| |---|
 |-----------------------------------------------------------------------------------------------|
 |-----------------------------------------------------------------------------------------------|
 |-------------------------------------7-------7-------7-------7-------7-------7-------7-------7-|
 |-----7-------7-------7-------7-------5---5-5-5---5-5-5---5-5-5---5-5-5---5-5-5---5-5-5---5-5-5-|
 |-5-5-5---5-5-5---5-5-5---5-5-5---5-5-----------------------------------------------------------|
 |-----------------------------------------------------------------------------------------------|

 


 


 p.m p.m p.m p.m p.m p.m p.m p.m p.m


 


 

 
 |---| |---| |---| |---| |---| |---| |---| |---| |---|
 |-----------------------------------------------------------------------------------------------|
 |-----------------------------------------------------------------------------------------------|
 |-----------------------------------------------------------------------------------------------|
 |--5-5-4-------4-------4-------4-------4-------4-------4-------4-------/7-----------------------|
 |------2---2-2-2---2-2-2---2-2-2---2-2-2---2-2-2---2-2-2---2-2-2---2-2-/5-----------------------|
 |-----------------------------------------------------------------------------------------------|

 


 


 1st verse


 


 acoustic


 


 

 
 |---------0--------------0-------------0--------------0--------------3--------------0-----------|
 |-------3--------------3-------------3--------------3----------------3------------3-------------|
 |-----2--------------2-------------2--------------2-----------------------------2---------------|
 |--0--------------0-------------0--------------0-------------------0---------0------------------|
 |----------------------------------------------------------------2------------------------------|
 |-------------------------------------------------------------3---------------------------------|

 


 


 p.m p.m p.m p.m


 


 

 
 Verse riff |-| |-| |-| |-| similar------------>
 |-----------------------------------------------------------------------------------------------|
 |-----------------------------------------------------------------------------------------------|
 |-----------------------------------------------------------------------------------------------|
 |--7-----7-----7-----7-----7-----7-----7-----7-------7-----7-----7-----7-----7-----7-----7------|
 |--5---5-5---5-5---5-5---5-5---5-5---5-5---5-5---5-5-5---5-5---5-5---5-5---5-5---5-5---5-5------|
 |-----------------------------------------------------------------------------------------------|
 |-----------------------------------------------------------------------------------------------|
 |-----------------------------------------------------------------------------------------------|
 |-----------------------------------------------------------------------------------------------|
 |----7-------------------------------4-----4-----4-----4-----7-----7-----7-----7-------7-----7--|
 |--5-5---5-5-5-----5-----5-----5-----2---2-2---2-2---2-2---2-5---5-5---5-5---5-5---5-5-5---5-5--|
 |------------3---3-3---3-3---3-3---3------------------------------------------------------------|
 |----------------------------------|
 |----------------------------------|
 |----------------------------------|
 |-----7-----7----------------------|
 |---5-5---5-5----------------------|
 |----------------------------------|

 


 


 chorus


 


 

 
 |-----------------------------------------------------------------------------------------------|
 |-----------------------------------------------------------------------------------------------|
 |-----------------------------------------------------------------------------------------------|
 |-------------------7--7----------------------------------7--7----------------------------------|
 |---9--9----5--5----5--5----7--7--7--7----9--9----5--5----5--5----7--7--7--7--------------------|
 |---7--7----3--3------------5--5--5--5----7--7----3--3------------5--5--5--5--------------------|
 p.m-----------------------------------------------------|
 |-----------------------------------------------------------------------------------------------|
 |-----------------------------------------------------------------------------------------------|
 |-----------------------------------------------------------------------------------------------|
 |-----------------------------7--7--7--7--------------------------------------------------------|
 |---9--9--9--9---5--5--5--5---5--5--5--5---7--7--7--7---5---(5)---------------------------------|
 |---7--7--7--7---3--3--3--3----------------5--5--5--5---3---(3)---------------------------------|

 


 


 1st solo


 


 

 
 |-------b---------------------------------------------------------------------------------------|
 |-------13----b---------------------------------------------------------------------------------|
 |------------12--12~------12^11------------b----------------7---(7)-----------------------------|
 |-------------------------------12--12~----5--5-----5^4-----------------------------------------|
 |--------------------------------------------------------5--------------------------------------|
 |-14\-------------------------------------------------------------------------------------------|

 


 | |


 | |


 | |


 

 
 |-----------------------------------------------------------------------------------------------|
 |-----------------------------------------------------------------------------------------------|
 |-----------------7---------------------------7-------------------------------------------------|
 |--------7--------5------------------7--------5-------------7-----------------------------------|
 |--------5---------------------------5----------------------5-----------------------------------|
 |-----------------------------------------------------------------------------------------------|

 


 


 2x Verse riff


 


 Chorus


 


 2nd solo


 


 

 
 |--------b--------------------------------------------------------------17-17-17^14-------------|
 |-------13-----b-----------------------------------------------12-------------------15--15-17-15|
 |-------------12--12~---11--12-11------------------11--12--14------14---------------------------|
 |----------------------------------12--12--12--14-----------------------------------------------|
 |-----------------------------------------------------------------------------------------------|
 |-----------------------------------------------------------------------------------------------|

 


 


 [1/2] [1/2]  

 
 |-----------------------------------------------------------------------------------------------|
 |----------12--14b-14-----------8--10b-10-----------------------------14-15-14^15^14------------|
 |-------11--------------------7-----------------------------------14-----------------16--14-----|
 |-----12--------------------9-------------------------12----14----------------------------------|
 |--14--------------------10-----------------/12-12-12----12----12-------------------------------|
 |-----------------------------------------------------------------------------------------------|

 


 


 [1/2] [1/2] 


 

 
 |--------------14^15^14--------15-15^14-----------------14-15-17---20b-21b----------------------|
 |-----14-15-17----------17-15-----------17-15-14-15-17------------------------------------------|
 |--16-------------------------------------------------------------------------------------------|
 |-----------------------------------------------------------------------------------------------|
 |-----------------------------------------------------------------------------------------------|
 |-----------------------------------------------------------------------------------------------|

 


 


 Rhythm guitar while solo


 


 

 
 |-----------------------------------------------------------------------------------------------|
 |-----------------------------------------------------------------------------------------------|
 |-----------------------------------------------------------------------------------------------|
 |--7----7----7----7------------------------7----7----7----7------------------------4----4----4--|
 |--5--5-5--5-5--5-5--5-5----5----5----5----5--5-5--5-5--5-5--5-5----5----5----5----2--2-2--2-2--|
 |----------------------3--3-3--3-3--3-3--3---------------------3--3-3--3-3--3-3--3--------------|
 |-----------------------------------------------------------------------------------------------|
 |-----------------------------------------------------------------------------------------------|
 |-----------------------------------------------------------------------------------------------|
 |---4-------------------------------------------------------------------------------------------|
 |-2-2-2-5----5----5----5----7----7----7----7----7----7----7----7--------------------------------|
 |-------3--3-3--3-3--3-3--3-5--5-5--5-5--5-5--5-5--5-5--5-5--5-5--------------------------------|

 


 


 chorus


 


 end


 


 repeat and fade out


 


 

 
 |-------------0--------------------------|
 |-----------3----------------------------|
 |---------2------------------------------|
 |------0---------------------------------|
 |----------------------------------------|
 |----------------------------------------|


Important: The song above is NOT stored on the Chordie server. The original song is hosted at www.xguitar.com. Chordie works as a search engine and provides on-the-fly formatting. Chordie does not index songs against artists'/composers' will. To remove this song please click here.

This song is displayed as text-only. Transposing and tuning is only available for chordpro-songs.
Rate #3 of 4 versions

Login - add to songbook

SHARE PAGE  




You need to log in to post comments