Guitar Tabs, Chords and Lyrics
Major upgrade!! After one year development the new version of Chordie is now online! Please give feedback.


Soul of a Vagabond   Stratovarius

 
 eb|----------------------------------------------------------------------------------|
 Bb|----------------------------------------------------------------------------------|
 Gb|----------------------------------------------------------------------------------|
 Db|------2--2--0------2--2--0------2--2--0--2--4--5--7-------------------------------|
 Ab|--2-2-2--2--0--2-2-2--2--0--2-2-2--2--0--2--4--5--7-------------------------------|
 Eb|--0-0----------0-0----------0-0---------------------------------------------------|

 


 


 * * * * * *


 

 
 eb|----------------------------------------------------------------------------------|
 Bb|----------------------------------------------------------------------------------|
 Gb|----------------------------------------------------------------------------------|
 Db|------2--2--0------2--2--0------2--2--0--5--4----5/7------------------------------|
 Ab|--2-2-2--2--0--2-2-2--2--0--2-2-2--2--0--5--4----5/7------------------------------|
 Eb|--0-0----------0-0----------0-0---------------------------------------------------|

 


 


 Riff B:


 * * * * * *


 

 
 eb|----------------------------------------------------------------------------------|
 Bb|----------------------------------------------------------------------------------|
 Gb|--2--2--2--2--0-----------------2--2--2--2--0--0------0---------------------------|
 Db|--2--2--2--2--0--3--3--3--3--0--2--2--2--2--0--0-3--3-0---------------------------|
 Ab|-----------------3--3--3--3--0-------------------3--3-----------------------------|
 Eb|----------------------------------------------------------------------------------|

 


 


 Interlude A:


 

 
 eb|----------------------------------------------------------------------------------|
 Bb|----------------------------------------------------------------------------------|
 Gb|----------------------------------------------------------------------------------|
 Db|--4--5-4---4--5-4---4--5-4---4-5-4-----4------------------------------------------|
 Ab|---------7--------7--------7-------7-5---7-5-4-7-5-4-2-0--2-let-ring--------------|
 Eb|----------------------------------------------------------0-----------------------|

 


 


 Verse (Clean):


 //:[Emi] [Bmi] [Emi]://


 //:[Gdur] [Cdur]://


 end of verse: [Cdur] [Bmi] [Adur]


 


 Chorus:


 * * * * * *


 

 
 eb|----------------------------------------------------------------------------------|
 Bb|----------------------------------------------------------------------------------|
 Gb|-------------------5--5--2--------------------------------------------------------|
 Db|------2--2--0------5--5--2------2--2--0--2--4--5--7-------------------------------|
 Ab|--2-2-2--2--0--2-2----------2-2-2--2--0--2--4--5--7-------------------------------|
 Eb|--0-0----------0-0----------0-0---------------------------------------------------|

 


 


 * * * * * *


 

 
 eb|----------------------------------------------------------------------------------|
 Bb|----------------------------------------------------------------------------------|
 Gb|-------------------5--5--2--------------------------------------------------------|
 Db|------2--2--0------5--5--2------2--2--0--5--4--5(/)7------------------------------|
 Ab|--2-2-2--2--0--2-2----------2-2-2--2--0--5--4--5(/)7------------------------------|
 Eb|--0-0----------0-0----------0-0---------------------------------------------------|

 


 


 * * * * * *


 

 
 eb|----------------------------------------------------------------------------------|
 Bb|----------------------------------------------------------------------------------|
 Gb|-------------------5--5--2--------------------------------------------------------|
 Db|------2--2--0------5--5--2------2--2--0--2--4--5--7-------------------------------|
 Ab|--2-2-2--2--0--2-2----------2-2-2--2--0--2--4--5--7-------------------------------|
 Eb|--0-0----------0-0----------0-0---------------------------------------------------|

 


 


 * * * * * *


 

 
 eb|----------------------------------------------------------------------------------|
 Bb|----------------------------------------------------------------------------------|
 Gb|-------------------5--5--2--------------------------------------------------------|
 Db|------2--2--0------5--5--2------2--2--0--5--4--5----------------------------------|
 Ab|--2-2-2--2--0--2-2----------2-2-2--2--0--5--4--5----------------------------------|
 Eb|--0-0----------0-0----------0-0---------------------------------------------------|

 


 


 * * * * * *


 

 
 eb|----------------------------------------------------------------------------------|
 Bb|----------------------------------------------------------------------------------|
 Gb|--2--2--2--2--0-----------------2--2--2--2--0--0------0---------------------------|
 Db|--2--2--2--2--0--3--3--3--3--0--2--2--2--2--0--0-3--3-0---------------------------|
 Ab|-----------------3--3--3--3--0-------------------3--3-----------------------------|
 Eb|----------------------------------------------------------------------------------|

 


 


 * * * * * *


 

 
 eb|----------------------------------------------------------------------------------|
 Bb|----------------------------------------------------------------------------------|
 Gb|--2--2--2--2--0-----------------2--2--2--2--0--0------0---------------------------|
 Db|--2--2--2--2--0--3--3--3--3--0--2--2--2--2--0--0-3--3-0---------------------------|
 Ab|-----------------3--3--3--3--0-------------------3--3-----------------------------|
 Eb|----------------------------------------------------------------------------------|

 


 


 * * * * * *


 

 
 eb|----------------------------------------------------------------------------------|
 Bb|----------------------------------------------------------------------------------|
 Gb|-------------------5--5--2--------------------------------------------------------|
 Db|------2--2--0------5--5--2------2--2--0--2--4--5--7-------------------------------|
 Ab|--2-2-2--2--0--2-2----------2-2-2--2--0--2--4--5--7-------------------------------|
 Eb|--0-0----------0-0----------0-0---------------------------------------------------|

 


 


 * * * * * *


 

 
 eb|----------------------------------------------------------------------------------|
 Bb|-----------------------------------------7-5--5-2---------------------------------|
 Gb|-------------------5--5--2---------------7-5--5-2---------------------------------|
 Db|------2--2--0------5--5--2------2--2--0-------------------------------------------|
 Ab|--2-2-2--2--0--2-2----------2-2-2--2--0-------------------------------------------|
 Eb|--0-0----------0-0----------0-0---------------------------------------------------|
 eb|----------------------------------------------------------------------------------|
 Bb|----------------------------------------------------------------------------------|
 Gb|----------------------------------------------------------------------------------|
 Db|--4--5-4---4--5-4---4--5-4---4-5-4-----4------------------------------------------|
 Ab|---------7--------7--------7-------7-5---7-5-4-7-5-4-2-0--2-let-ring--------------|
 Eb|----------------------------------------------------------0-----------------------|

 


 


 VERSE:


 


 CHORUS:


 


 SOLO:


 


 

 
 eb|--/19//-17//-15//-------------------------------------------------------------------------------------------|
 Bb|------------------19//-17//-16//----------------------------------------------------------------------------|
 Gb|---------------------------------17//-16//---16b-14---------------------------------------------------------|
 Db|-----------------------------------------------------17-16-14--17p16p14-14h16-17p16p14-14h16-17p16p14-14h16-|
 Ab|------------------------------------------------------------------------------------------------------------|
 Eb|------------------------------------------------------------------------------------------------------------|
 eb|-----------------------------------------------------------------------------------|
 Bb|------------------------------------------------------16h17p16---------------------|
 Gb|---------------------------------------14h16p14----------------17p16p14------------|
 Db|--17p16p14-14h16h17--17p16p14-14h16h17----------17p16-------------------17p16p14---|
 Ab|-----------------------------------------------------------------------------------|
 Eb|-----------------------------------------------------------------------------------|
 eb|------------------------------------------------------------------------19p17p15-15h17p15-----------|
 Bb|--------------------------------------------------------------19b--17b--------------------19p17p16--|
 Gb|----------------------------------------------------------------------------------------------------|
 Db|------------12h14p12--------------------------------------------------------------------------------|
 Ab|--17p15p14-----------15p14p12-14h15p14p12-----------------------------------------------------------|
 Eb|------------------------------------------15p14p12h14h15-vibr---------------------------------------|
 eb|----------------------------------------------------------------------------------------|
 Bb|----------------------------------------------------------------------------------------|
 Gb|--17p16p14h16-17p16p14-------------------16/17b-16-14h16----------16p14-----------------|
 Db|-----------------------17p16p14--------------------------14h16h17-------17p16p14h16h17--|
 Ab|--------------------------------17p15p14------------------------------------------------|
 Eb|----------------------------------------------------------------------------------------|
 eb|----------------------------------------------------------------------------------------|
 Bb|----------------------------------------------------------------------------------------|
 Gb|---16p14----------------16p14----------------16p14----------------16p14-----------------|
 Db|---------17p16p14h16h17-------17p16p14h16h17-------17p16p14h16h17-------17p16p14h16h17--|
 Ab|----------------------------------------------------------------------------------------|
 Eb|----------------------------------------------------------------------------------------|
 eb|--------------------------------------------------------------17h19--17-15----17-15--15h17p15-----------|
 Bb|-----------------------------------------------------16h17h19--------------19-----------------19p17p16--|
 Gb|--16p14----------------16p14----------------14h16h17----------------------------------------------------|
 Db|--------17p16p14h16h17-------17p16p14h16h17-------------------------------------------------------------|
 Ab|--------------------------------------------------------------------------------------------------------|
 Eb|--------------------------------------------------------------------------------------------------------|
 eb|--17h19p17p15-17p15-----------------------------------------------------------------------------------------|
 Bb|--------------------19p17p16-17p16--------------------------------------------------------------------------|
 Gb|-----------------------------------17p16p14----------14h16p14-----------------------------------------------|
 Db|--------------------------------------------17p16p14----------17p16h14-16p14--------------------------------|
 Ab|-----------------------------------------------------------------------------17p15p14-----------------------|
 Eb|--------------------------------------------------------------------------------------17p15p14h15h17--10b---|
 eb|--------------------------------------------------------17--19-19-----------------|
 Bb|--/19b--17-17-------------------------------------17-19---------------------------|
 Gb|---------------19-19--17-17--14-17--14-16b--14/16---------------------------------|
 Db|----------------------------------------------------------------------------------|
 Ab|----------------------------------------------------------------------------------|
 Eb|----------------------------------------------------------------------------------|
 eb|--(17h)19p17p15-17p15--------------------------------------------------------------------------------------------|
 Bb|----------------------19p17p16-17p16-----------------------------------------------------------------------------|
 Gb|-------------------------------------17p16p14----------14h16p14--------------------------------------------------|
 Db|----------------------------------------------17p16p14----------17p16p14-16p14-----------------------------------|
 Ab|-------------------------------------------------------------------------------17p15p14--------------------------|
 Eb|----------------------------------------------------------------------------------------17p15p14h15h17-12--------|
 eb|-------------------------------------------------------------------------17h19---17p15----------17h19p17p15----------|
 Bb|-------------------------------------------16h17h19p17p16-------16h17h19---------------19p17p16-------------19p17p16-|
 Gb|-------------------14h16p14-------14h16h17----------------17p16------------------------------------------------------|
 Db|--14/16b--14h16h17----------17p16------------------------------------------------------------------------------------|
 Ab|---------------------------------------------------------------------------------------------------------------------|
 Eb|---------------------------------------------------------------------------------------------------------------------|
 eb|--------------------------------------------------------------------17h19--17-let-ring-----------|
 Bb|--17p16----------------------------------------------------16h17h19------------------------------|
 Gb|--------17p16p14----------14h16p14----------------14h16h17---------------------------------------|
 Db|-----------------17p16p14----------17p16p14h16h17------------------------------------------------|
 Ab|-------------------------------------------------------------------------------------------------|
 Eb|-------------------------------------------------------------------------------------------------|


Important: The song above is NOT stored on the Chordie server. The original song is hosted at www.xguitar.com. Chordie works as a search engine and provides on-the-fly formatting. Chordie does not index songs against artists'/composers' will. To remove this song please click here.

This song is displayed as text-only. Transposing and tuning is only available for chordpro-songs.
Rate #2 of 3 versions

Login - add to songbook

SHARE PAGE  




You need to log in to post comments