Guitar Tabs, Chords and Lyrics
Major upgrade!! After one year development the new version of Chordie is now online! Please give feedback.


Eternity   Stratovarius

 
 e:---------------------------------------------------------------------------|
 B:-----------10--8------------------------------------10--8------------------|
 G:--------9-----------10-----9-----7-----9~--------9------------10-----9-----|
 D:-----7------------7-----7-----7-----7---------7--------7---7------7-----7--|
 A:--0----------------------------------------0-------------------------------|
 E:---------------------------------------------------------------------------|

 


 


 Distortion:Pm..........................................


 

 
 e:---------------------------------------------------------------------------|
 B:-------------------|--------10--8---------------------------10---8---------|
 G:7------------------|------9----------10---9---7---9~------9----7---10----9-|
 D:---7--10--9--7--6--|----7----------7----7---7---7-------7-------------7----|
 A:---0---0--0--0--0--|-0--------------------------------0--------------------|
 E:---------------------------------------------------------------------------|

 


 


 .............)


 

 
 e:---------------------------------------------------------------------------|
 B:-----|-------------|--------10--8---------------------------10---8---------|
 G:---5-|-------------|------9----------10---9---7---9~------9----7---10----9-|
 D:-7---|-10-9--7-6-7-|----7----------7----7---7---7-------7-------------7----|
 A:-----|-------------|-0--------------------------------0--------------------|
 E:---------------------------------------------------------------------------|
 e:---------------------------------------------------------------------------|
 B:-----|-------------|--------10--8---------------------------10---8---------|
 G:---5-|-10-9-10-9---|------9----------10---9---7---9~------9----7---10----9-|
 D:-7---|-10-9-10-9-7-|----7----------7----7---7---7-------7-------------7----|
 A:-----|-----------0-|-0--------------------------------0--------------------|
 E:---------------------------------------------------------------------------|

 


 


 .............)


 

 
 e:---------------------------------------------------------------------------|
 B:-----|-------------|-------------------------------------------------------|
 G:---5-|-------------|----9-9-9-10-10--10--7-7--7/9--9-9--9\7-5-4/5----------|
 D:-7---|-10-9--7-6-7-|----7-7-7--7--7---7--7-7--7-7--7-7--7-7-5-5-5--7/\/----|
 A:-----|-------------|--0--------------------------------------------0-------|
 E:---------------------------------------------------------------------------|

 


 


 Verse 1 Bridge


 

 
 e:--------------------------------------0------------------------------------|
 B:----|------------------------------|--0--------------|---------------------|
 G:----|------------------------------|--2---many-times-|---------------------|
 D:----|------------------------------|--2--------------|-10-(---)10-(---)10-(|
 A:----|------------------------------|--0--------------|--8--8-8--8--8-8--8--|
 E:---------------------------------------------------------------------------|
 e:---------------------------------------------------------------------------|
 B:---------------------------------------------------------------------------|
 G:--------------7-(---)-7-(---)-7-(---)-7-(---)------------------------ah----|
 D:---)10-(---)--5--5-5--5--5-5--5--5-5--5--5-5---2----2------------(-)--5~--2|
 A:8-8--8--8-8------------------------------------0----0----3--2--0--0-------0|
 E:---------------------------------------------------------------------------|
 e:---------------------------------------------------------------------------|
 B:---------------------------------------------------------------------------|
 G:--------------------ah-----------------------------------------------------|
 D:----2----------------5~-10-(---)10-(---)10-(---)10-(---)-7-(---)-7-(---)-7-|
 A:----0----3--2--0--0------8--8-8--8--8-8--8--8-8--8--8-8--5--5-5--5--5-5--5-|
 E:---------------------------------------------------------------------------|

 


 


 Chorus


 

 
 e:---------------------------------------------------------------------------|
 B:-----------------------------------------|--Same-as-Intro-and-guitar-riff-|
 G:-----------------------------------------|--------------------------------|
 D:(---)-7-(---)-9-(---)-9-(---)-9-(---)-9--|--------------------------------|
 A:-5-5--5--5-5--7--7-7--7--7-7--7--7-7--7--|--------------------------------|
 E:---------------------------------------------------------------------------|

 


 


 Verse 2 Bridge | Chorus


 

 
 e:---------------8/\/\/\/---12/\/\/------------------------------------------|
 B:----------|-----------------------15/\/----13/\/-|-------------------------|
 G:--2--/\/--|--------------------------------------|-------------------------|
 D:--2--/\/--|--------------------------------------|-------------------------|
 A:--0--/\/--|--------------------------------------|-------------------------|
 E:---------------------------------------------------------------------------|

 


 


 Guitar Solo Pm........ 1/2


 

 
 e:-Bar/\---------Ha1/2----------------------/\----------1/2-1/2--------------|
 B:-H.a--\--/-----/\-------------------------5-5---------/\--/\---------------|
 G:--4----\/-----7---7--7-5-4-5-4----------------------9-9---9---9--Slide-----|
 D:--------------------------------4-5-4-0-2---------7-------------/9\--------|
 A:------------------------------------------------7--------------------------|
 E:---------------------------------------------------------------------------|

 


 


 very fast


 

 
 e:---------------------------------------------------------------------------|
 B:---------------------------------------------------------------------------|
 G:-------------------------------------------------------15-16-17------------|
 D:-------------------------------------14/16\14--12--16-----------16-14-16---|
 A:-------------12--14-15--14/15-15-17----------------------------------------|
 E:--12-13--15----------------------------------------------------------------|
 e:---------------------------------------------------------------------------|
 B:---------------------------------------------------------------------------|
 G:--------------------------------------14/16\17\16----16\17-----------------|
 D:-12-------------------12-----14-15-15-------------15-----------------------|
 A:----15-15-14-14-12-12----12----------------------------------12/15\14\12\14|
 E:---------------------------------------------------------------------------|
 e:---------------------------------------------------------------------------|
 B:----------------------------------17---------------------------------------|
 G:----------------------------15-16----16-15-13------------------------------|
 D:-------------14-16\14-12\14--------------------13--------------------------|
 A:-15-14-15-17--------------------------------------12-15-14-14-14-----------|
 E:-----------------------------------------------------------------12-12-13--|

 


 


 [1/2]  

 
 e:-------------------------------------------------/\------------------------|
 B:------------------------------------------------17--17--17-19-20-19\17--16-|
 G:------------------------------------------15-16----------------------------|
 D:--------------16\14\12----------14\12/14-----------------------------------|
 A:-12-15-14-15-----------12/16\12--------------------------------------------|
 E:---------------------------------------------------------------------------|

 


 


 Ha. H.A


 

 
 e:----------------------------------------------------Ha/\/------------------|
 B:----------------------|-----------------12-12-10-10-9----|-----------------|
 G:-17-16-14-12-11-12--9-|----------------------------------|-----------------|
 D:----------------------|--7-7--5-5--3-3-------------------|-7-7-5-5-3-3-----|
 A:----------------------|----------------------------------|-----------------|
 E:---------------------------------------------------------------------------|

 


 


 [1/2]  

 
 e:------------------------Ha--------/\---------------------------------------|
 B:-----Ha--------------------------12-------------17-------------------------|
 G:--12-10--10-10-10-9-9-10-9-------------------15----------------------------|
 D:----------------------------9-9-9------14-17------------------15-17/19-----|
 A:----------------------------------------------------16-17/19-----------19--|
 E:---------------------------------------------------------------------------|
 e:---------------------------------------------------------------------------|
 B:---------------------------------------------------------------------------|
 G:-------------------15-17-17-17-15/17/19------------------------------------|
 D:-17-19-15-17-17/19----------------------19----------------------17/19\17---|
 A:-------------------------------------------17-19-16-17-17-19-19------------|
 E:---------------------------------------------------------------------------|

 


 


 Pm....................


 

 
 e:---------------------------------------------------------------------------|
 B:--------------------------------------15-----------------------------------|
 G:-15-17-17-15-17-19-----------------16-----16-------------------2---2-4-5-4-|
 D:-------------------19--17-16/17-19-----------14/\/\-----3-2-3-5--5---------|
 A:---------------------------------------------------------------------------|
 E:---------------------------------------------------------------------------|

 


 [1/2] [1/2]  

 
 e:---------/\-------------------------/\-------------------------------------|
 B:---------5--------------------------7------------------------------H.A-----|
 G:-5-4-5-7-------------4--4-6-7-6-7-9---------------------------------7------|
 D:-------------5-4-5-7--7-----------------------5---5-7--5-7-8-7-8-10--------|
 A:----------------------------------------8-7-8---8--------------------------|
 E:---------------------------------------------------------------------------|

 


 Pm...........................................................


 

 
 e:---------------------------------------------------------------------------|
 B:-----------|---------------------------------------------------------------|
 G:----7-8-10-|------------------------------------------------10-------------|
 D:-10--------|-0-2-0-3-0-2-3-2-3-5-3-5-6-6-5--6-8-10-11-10-11----16-17-------|
 A:-----------|---------------------------------------------------------------|
 E:---------------------------------------------------------------------------|
 e:---------------------------------------------------------------------------|
 B:-------17/22~/\/\/\/\/-----------------------------------------------------|
 G:----16---------------------------------------------------------------------|
 D:-20------------------------------------------------------------------------|
 A:---------------------------------------------------------------------------|
 E:---------------------------------------------------------------------------|

 


 


 Repeat Chorus...until the end...faded...


 


 

 
 e:-----|---|

 


 B:-End-|---|


 

 
 G:-----|---|
 D:-----|---|
 A:-----|---|
 E:-----|---|


Important: The song above is NOT stored on the Chordie server. The original song is hosted at www.xguitar.com. Chordie works as a search engine and provides on-the-fly formatting. Chordie does not index songs against artists'/composers' will. To remove this song please click here.

This song is displayed as text-only. Transposing and tuning is only available for chordpro-songs.
Rate #3 of 4 versions

Jango Player

Login - add to songbook

SHARE PAGE  



You need to log in to post comments