Guitar Tabs, Chords and Lyrics
Major upgrade!! After one year development the new version of Chordie is now online! Please give feedback.


False Messiah   Stratovarius

 
 E-------------------------------------------------------------8-7-13-12-16~~---19-17--|
 B--------------------------------------------------------10-9-----------*----|--------|
 G---------7-----------------7----------------7---------9---------------------|--------|
 D--7-9-10---10-9-10--7-9-10---10-9-6--7-9-10---9-10-9------------------------|--------|
 A----------------------------------------------------------------------------|--------|
 E-------------------------------------------------------------------------------------|

 


 *=Dont play this the 4th time


 


 

 
 E-------------------------------------------------------------------------------------------|
 B-------------------------------------------------------------------------------------------|
 G--------------------7-6-------------------------------------------------7-6----------------|
 D--------5-7-5-----------8-7-5-------------------5-7---------5-7-5-----------8-7-5----------|
 A--5-7-8-------8-7-5-----------8-7-5-4-5-7-8-7-8-------5-7-8-------8-7-5-----------8-7-5-4-5|
 E-------------------------------------------------------------------------------------------|

 


 pm..............................................| pm....................................|


 


 

 
 E-----------------------------------------------------17~~---------------|
 B--------------------------------14-15-15-15-17-17-17--------------------|
 G-----------------------14-15-17-----------------------------------------|
 D---------5--------------------------------------------------------------|
 A-7-8-7-8---7-7-----7-7-------------------------------------7-7-----7-7--|
 E-----------5-5-----5-5-------------------------------------5-5-----5-5--|

 


 pm......|


 


 Then


 


 Guitar 1: 1/2


 

 
 E---------------------------------------------------------------------------------------------|
 B-6~~---------8--10~~---10/11\\10~~---8--6~~-------8--10~~---10/11\\10~~--13\\11/13\\11\\10\\8~~--8^|
 G-7~~---------9--10~~---10/12\\10~~---9--7~~-------9--10~~---10/12\\10~~--14\\12/14\\12\\10\\9~~--9^|
 D---------------------------------------------------------------------------------------------|
 A---------------------------------------------------------------------------------------------|
 E---------------------------------------------------------------------------------------------|
 E-----------|
 B-r8--6~~---|
 G-r9--7~~---|
 D-----------|
 A-----------|
 E-----------|

 


 


 Guitar 2: x2


 

 
 E---------------------------------------------------------------------------------------------|
 B---------------------------------------------------------------------------------------------|
 G---------------------------------------------------------------------------------------------|
 D-7-----7-----7-----7-----7-----7-----7-----7-----7-----7-----7-----7-----7-----7-----7-----7-|
 A-5-5-5-5-5-5-5-5-5-5-5-5-5-5-5-5-5-5-5-5-5-5-5-5-5-5-5-5-5-5-5-5-5-5-5-5-5-5-5-5-5-5-5-5-5-5-|
 E---------------------------------------------------------------------------------------------|

 


 pm..| pm..| pm..| pm..| pm..| pm..| pm..| pm..| pm..| pm..| pm..| pm..| pm..| pm..| pm..|


 


 end Intro


 


 Riff 1 x2 Verse 1


 

 
 E--------------------------------------------------------------------------------------------|
 B--------------------------------------------------------------|-----------------------------|
 G-----------------------5-------7-----------------------5-7~~--|-----------------------------|
 D-------7-------8-----------------------7-------8--------------|-----------------------------|
 A-8-7-5---8-7-5---8-7-5---8-7-5---8-7-5---8-7-5---8-7-5--------|-2------3--5--3--2-----2-----|
 E----------------------------------------------------------------0--0-0-1--3--1--0-0-0-0-0-0-|

 


 pm....................................................| pm..| pm..| pm..|


 


 x4 Chorus


 

 
 E---------------------------------------------------------------------------------------------|
 B-------------------|-------------------------------------------------------------------------|
 G-------------------|-9-----7--5---9-----7--5---9-----7--5---9-------------9-----7-5---9-----7|
 D----------10---7---|-7-----5--3---7-----5--3---7-----5--3---7------7-5----7-----5-3---7-----5|
 A-2-2-2-----8---5---|---0-0----------0-0----------0-0-----------0-0-5-3------0-0---------0-0--|
 E-0-0-0-0-0---0-------------------------------------------------------------------------------|

 


 pm..| pm pm..| pm..| pm..| pm..| pm..| pm..|


 


 Riff 2 x2


 

 
 E-------------------------------------------------------------------------------------------|
 B------------------------------------|------------------------------------------------------|
 G-5---9-----7-5----------------------|-------------------7-6--------------------------------|
 D-3---7-----5-3----------------------|-------5-7-5-----------8-7-5-------------------5-7~~--|
 A-------0-0-------5-5-3-3-2-2-----2--|-5-7-8-------8-7-5-----------8-7-5-4-5-7-8-7-8--------|
 E-----------------------------5-5-0---------------------------------------------------------|

 


 pm..| pm.............| pm............................................|


 


 Solo T T


 

 
 E------------------12~~--12h13p12-16p13p12h13h16p13h12h13h16-19^--r19~~---17p0-16p0-13p0-12p0-|
 B-------|--------|----------------------------------------------------------------------------|
 G-verse-|-chorus-|----------------------------------------------------------------------------|
 D-------|--------|----------------------------------------------------------------------------|
 A-------|--------|----------------------------------------------------------------------------|
 E---------------------------------------------------------------------------------------------|

 


 


 [1/2] [1/2]  

 
 E-13p0-12p0--12--13-12-10-------10------------------------------------------------------------|
 B-------------------------13-12----13-12-10---------12h13p12--12^-10-9------------------------|
 G-------------------------------------------13-10-9--------------------9^--9~~--9h10h9-7------|
 D----------------------------------------------------------------------------------------10-9-|
 A---------------------------------------------------------------------------------------------|
 E---------------------------------------------------------------------------------------------|

 


 pm.....|


 


 

 
 E---------------------------------------------------------------13-12-10-------13-12-10-------|
 B-----------------------------------------------9h10p9-12h13p12----------13-12----------13-12-|
 G----------------------------------------9h10p9-----------------------------------------------|
 D-7-------------------------6h7p6-9h10p9------------------------------------------------------|
 A---11-8-7-5-7-5-8-7--7h8p7-------------------------------------------------------------------|
 E---------------------------------------------------------------------------------------------|

 


 pm...............|


 


 

 
 E-------------------------------------------------------------------------------------------12|
 B-10-------13-12-10----------------------------------------------------------------10-12-13---|
 G----13-10----------13-10-9------------------------------------------------9-10-13------------|
 D---------------------------12-10-9----------------9-10-9----------9-10-12--------------------|
 A-----------------------------------12-11~~--11-12--------12-11-12----------------------------|
 E---------------------------------------------------------------------------------------------|

 


 T T


 

 
 E-10-------13-12-10------------------------------------------------0h5p0h5p0h5p0h5p0h17p5p0h19|
 B----13-12----------13-12-10-------13-12-10---------------------------------------------------|
 G----------------------------13-10----------13-10-9-------------------------------------------|
 D---------------------------------------------------12-10-9-----------------------------------|
 A-----------------------------------------------------------12-11-----------------------------|
 E---------------------------------------------------------------------------------------------|
 Ep5p0h20p5p0h19p5p0h17p5p0-16-13-12----------------------------------------------------------|
 B-----------------------------------15-13-12----------------------------------12-13-15-17-18-|
 G--------------------------------------------14-13-10----------------10-13-14----------------|
 D-----------------------------------------------------14-12-10-12-14-------------------------|
 A--------------------------------------------------------------------------------------------|
 E--------------------------------------------------------------------------------------------|

 


 


 Full


 

 
 E-------15-13-15-17-18^--16p13----16p13----16p13----16p13----13-12-10-------12-10-------------|
 B-17-18------------------------15-------12----------------------------13-12-------13-12-10----|
 G------------------------------------------------13----------------------------------------13-|
 D---------------------------------------------------------14----------------------------------|
 A---------------------------------------------------------------------------------------------|
 E---------------------------------------------------------------------------------------------|
 E-----------------------------------------------------------------------------------------10-|
 B--------------------------------------------------------------------------------10-12-13----|
 G-10-9-------------------------------------------------------------------9-10-13-------------|
 D------12-10-9---------------------------------------------------9-10-12---------------------|
 A--------------12-11-8-----------------------------------8-11-12-----------------------------|
 E----------------------12-10-8-7-5-4-1-0-1-4-5-7-8-10-12-------------------------------------|

 


 pm................................................|


 Full


 

 
 E-12-------10-12-13----------12-13-----------13-15----------15-17----------17-19-22-22^-20-19|
 B----12-13----------12-13-15-------13-15-17--------15-17-18-------17-19-20-------------------|
 G--------------------------------------------------------------------------------------------|
 D--------------------------------------------------------------------------------------------|
 A--------------------------------------------------------------------------------------------|
 E--------------------------------------------------------------------------------------------|
 E-17-16-13-12-16-13-12----------13-12-----------------------------------13-12-10-------12-10-|
 B----------------------15-13-12-------15-13-12-------13-12-----------------------13-12-------|
 G----------------------------------------------14-15-------14-15----14-----------------------|
 D----------------------------------------------------------------16--------------------------|
 A--------------------------------------------------------------------------------------------|
 E--------------------------------------------------------------------------------------------|
 E---------------------------------------------------------------------10-10-10-12~~--17~~----|
 B-13-12------------------------------------------10-12-12-12-13-13-13--------|---------------|
 G-------13-10-9--------------------------9-10-13-----------------------------|-Guitar-2------|
 D---------------12-10-9----------9-10-12-------------------------------------|-Riff-1--------|
 A-----------------------12-11-12---------------------------------------------|(2-times)------|
 E--------------------------------------------------------------------------------------------|
 E------------------|
 B---------|--------|
 G---------|--------|

 


 D-Verse-3-|-Chorus-| end


 

 
 A---------|--------|
 E------------------|


Important: The song above is NOT stored on the Chordie server. The original song is hosted at www.xguitar.com. Chordie works as a search engine and provides on-the-fly formatting. Chordie does not index songs against artists'/composers' will. To remove this song please click here.

This song is displayed as text-only. Transposing and tuning is only available for chordpro-songs.
Rate #2 of 4 versions

Jango Player

Login - add to songbook

SHARE PAGE  




You need to log in to post comments