Guitar Tabs, Chords and Lyrics
Major upgrade!! After one year development the new version of Chordie is now online! Please give feedback.


Out of the Shadows   Stratovarius

 
 E----------13-17-20-18-17----------12-15-18-17-15--13-13-12-12-10-10-18-17---15-----13~~--|
 B-------13----------------------13-----------------------------------------------|--------|
 G--------------------------------------------------------------------------------|--------|
 D-------------------------3-5~~-----------6-----7------------5--3-------------5--|--------|
 A-2-3~~-------------------1-3~~-----------4-----5------------3--1--------3----3--|---3----|
 E-0-1~~------------------------------------------------------------------1-----------1----|

 


 


 Riff 1


 

 
 E-----------------------------------------------------------------------------------------|
 B-----------------------------------------------------------------------------------------|
 G---------------5-----------------------5-------------------------3-----------------------|
 D-7-----7-8----A.H.---8-7-7-----7-8----A.H.---8-7--5-----5-7----A.H.-----5-7-5-----5-7----|
 A-5-5-5-----5-5---5-5-----5-5-5-----5-5---5-5------3-3-3-----3-3-----3-3-----3-3-3-----3-3|
 E-----------------------------------------------------------------------------------------|

 


 pm..| pm..| pm..| pm..| pm..| pm..| pm..| pm..| pm..| pm..| pm..|


 x4 Verse x2


 

 
 E-----------------------------------------------------------------------------------------|
 B---------------|--------------------------------------------|----------------------------|
 G--3------------|--------------------------------------------|----------------------------|
 D-A.H.-----7-5--|-7--------7-----7-----5-----7-----7-----5---|-----5-------5--6------7-8--|
 A------3-3------|-5----5-5-5-5-5-5-5-5-3-5-5-5-5-5-5-5-5-3---|-3---3---3---3--4--5-5-----5|
 E--------------------------------------------------------------1-------1------------------|

 


 pm..| pm..| pm..| pm..| pm..| pm..| pm..| pm..| pm


 


 

 
 E-----------------------------------------------------------------------------------------|
 B---------------------------------------------------------------------------------|-------|
 G---5-----------------------5-----------------------3-----------------------------|-Verse-|
 D--A.H.-----8-7-----7-8----A.H.----8-7-----5-7----A.H.-----7-5--5-5-5-5-5-5-5-5-5-|---2---|
 A-5-----5-5-----5-5-----5-5----5-5-----3-3-----3-3-----3-3------3-3-3-3-3-3-3-3-3-|-------|
 E-----------------------------------------------------------------------------------------|

 


 pm pm..| pm..| pm..| pm..| pm..| pm..| pm..|


 


 

 
 E-----------------------------------------------------------------------------------------|
 B-----------------------------------------------------------------------------------------|
 G-------------------------------5------------------------5---------------------3----------|
 D-----5-------5--6------7-8----A.H.-----8-7-----7-8----A.H.----8-7-----5-7----A.H.---7-5-5|
 A-3---3---3---3--4--5-5-----5-5-----5-5-----5-5-----5-5----5-5-----3-3-----3-3---3-3-----3|
 E-1-------1-------------------------------------------------------------------------------|

 


 pm..| pm..| pm..| pm..| pm..| pm..| pm..| pm..| pm..|


 


 Chorus


 

 
 E-----------------------------------------------------------------------------------------|
 B------------------|------------------------------------------------------------------|---|
 G------------------|------------------------------------------------------------------|---|
 D------------------|-------5---------5--------------------------5--6--7---5--3-----5--|-6-|
 A-3-3--------------|-3--1--3---5--3--3--3-3---------------3--1--3--4--5---3--1--3--3--|-4-|
 E-----6-6-5-5-3-3----1---------3--1---------6-6-5-5-3-3---1---------------------1---------|

 


 pm..............| pm...............|


 


 Guitar Solo


 

 
 E-20b(22)~~-20b(22)~~--15b(17)r15-13-15-----------13-15-17-15-13--------------------------|
 B----------------------------------------13-15-17----------------17-15-13-15---17-18---17-|
 G-----------------------------------------------------------------------------------------|
 D-----------------------------------------------------------------------------------------|
 A-----------------------------------------------------------------------------------------|
 E-----------------------------------------------------------------------------------------|
 E----------15-17-20-17-15----------------15-17-20-17-15-----------------------------------|
 B-15-17-18----------------18-17-15-17-18----------------18-17-15--17-18-17-15-17-15----15-|
 G-----------------------------------------------------------------------------------17----|
 D-----------------------------------------------------------------------------------------|
 A-----------------------------------------------------------------------------------------|
 E-----------------------------------------------------------------------------------------|
 E-----------------------------------------------------------------------------------------|
 B-----------------------------------------------------------------------------------------|
 G-17-15-17-15-14-17-15-14----15-14-------14-----------------------------------------------|
 D-------------------------17-------17-15----17-15-14-17-15-14----------14-15-14-----------|
 A-------------------------------------------------------------17-15-17----------17-15~----|
 E-----------------------------------------------------------------------------------------|

 


 


 x2


 

 
 E---6--5h6p5--3--5--6---8---6h8p-6--5--6--8---10---8h10p8---6--8---10--12-----/15-15------|
 B---8--6h8p6--5--6--8---10--8h10p8--6--8--10--11--10h11p10--8--10--11--13---|-/17-17------|
 G*-------------------------------------------------------------------------*|-------------|
 D*-------------------------------------------------------------------------*|-------------|
 A---------------------------------------------------------------------------|-------------|
 E-----------------------------------------------------------------------------------------|

 


 


 end Guitar Solo Gtr.2 with Chorusriff


 

 
 E-/20-20~~--------------------------------------------------------------------------------|
 B-/20-20~~--------------------|--------|-10-10-11-13-----10-8---8-10-11--10--8-10--11-10-8|
 G-----------------------------|-Chorus-|-------------10-----------------------------------|
 D-----------------------------|--------|--------------------------------------------------|
 A-------------3-3-------------|--------|--------------------------------------------------|
 E-----------------6-6-5-5-3-3-------------------------------------------------------------|

 


 pm...............|


 


 

 
 E-------------------------------------------------------------------|
 B-10-10-11-13-----10-8~~------|-------------------------------------|
 G-------------10--------------|-------------------------------------| end
 D-----------------------------|-Trem.pick.-//10----\----------------|
 A-----------------------------|----3-------//8-----\\3~---------3\--|
 E----------------------------------1---------/------\1~---------1\--|

 


 


 Rhythm Guitar During Guitar Solo


 x2


 

 
 E-------------------------------------------------------------------|
 B-----------------------|---------------------|---------------------|
 G-----------------------|*-------------------*|---------------------|
 D---7----5----7----5----|*-------------------*|---------------------|
 A---5----3----5----3----|--5----7----8---10---|-10-10------10-10----|
 E--------------------------3----5----6----8------8--8-------8--8----|


Important: The song above is NOT stored on the Chordie server. The original song is hosted at www.xguitar.com. Chordie works as a search engine and provides on-the-fly formatting. Chordie does not index songs against artists'/composers' will. To remove this song please click here.

This song is displayed as text-only. Transposing and tuning is only available for chordpro-songs.
Rate #2 of 3 versions

Login - add to songbook

SHARE PAGE  



You need to log in to post comments