Guitar Tabs, Chords and Lyrics
Major upgrade!! After one year development the new version of Chordie is now online! Please give feedback.


Work That We Do  Sublime

Sublime-Robbin' The Hood
Work That We Do
**normal tuning**
Bass Line(This is the basic bass line with variations in rhythm)
 
 G|---------------------------------|
 D|---------------------------------|
 A|----------------1-3--3-3-3--1----|
 E|--1h3--3-3-3--3------------------|

Basic Guitar Rhythm(w/ slight changes)
[Gm] [Cm] [Gm]  
 
 e|------3--x--3-----3---3-------|
 B|------3--x--3--4--4---3-------|
 G|------3--x--3--5--5---3-------|
 D|---------------5--------------|
 A|------------------------------|
 E|---3--------------------------|

Lyrics
Well we realized so long, long ago, and I bet you,
that we've seen it all, the lies wont get you.
I've got fourteen miles to go,
I've got rythem comin' sence I've got the sto.
But I won't wanna come around our love. So why?
If you are rich, I'm gonna hang you on the wall.
I'ma find you.
And when I find you, I'm gonna get your lovin' arms today.
So we fight to get, we fight to ger our weary arms to bed.
Real love's somthing that I still hope people make there own places to go.
And now in '94 were gonna lie some more.
In 1994 were going to die some more.
It it ever going to be the last show?
It's going to be the last drive,
boss to proud to make the cars that we drive.
The women don't mind, I've got ample time,
they don't wonder why that they do.
That's work that we do, a work that we do is work that we do.
Chords Used
 
 ------------

[Gm] [Cm]  
 
 e|--3---3--|
 B|--3---4--|
 G|--3---5--|
 D|--5---5--|
 A|--5---3--|
 E|--3------|


Important: The song above is NOT stored on the Chordie server. The original song is hosted at www.xguitar.com. Chordie works as a search engine and provides on-the-fly formatting. Chordie does not index songs against artists'/composers' will. To remove this song please click here.

Text color:
Chord color:
Chord grids: 
Font size:    
Page size: 

Cm Gm
Rate #2 of 3 versions

Login - add to songbook

SHARE PAGE  



You need to log in to post comments