Guitar Tabs, Chords and Lyrics
Major upgrade!! After one year development the new version of Chordie is now online! Please give feedback.


Daddy's Speeding  Suede

Thanks to: Corgan, corgan@infosky.net
(tune down 1/2 step)
Intro and Verse: played on an acoustic guitar with plastic strings
 
 e:|----3-----3---------3-----3---------3-----3---------3-----3---------3-----3--------|
 B:|------3-----3---3-----3-----3---3-----4-----4---4-----1-----1---1-----1-----1---1--|
 G:|--0-----0-----0---0-----0-----0---0-----0-----0---0-----0-----0---0-----0-----0----|
 D:|-----------------------------------------------------------------------------------|
 A:|-----------------------------------------------------------------------------------|
 E:|-----------------------------------------------------------------------------------|

Whiplash caught the silver son...
The song is realy in Dog man star style, no drums, a lot of piano, and plenty of wierd effects.
I'm ging to transcribe the piano sections so they can be played on a guitar.
Piano 1 : this enters the verse after Bret sings "...and left us here"
for the first time (on the "here" to be precise)
 
 e:|---------------------------------------------------|
 B:|--15-15-15-15-15-15-15-15-15-15-15-15-15-15-15-16--|
 G:|--12-12-12-12-12-12-12-12-12-12-12-12-12-12-12-12--|
 D:|---------------------------------------------------|
 A:|---------------------------------------------------|
 E:|---------------------------------------------------|

* there are variations afterwards that are not so hard to hear,
so figure them out for yourself
Piano thingy 2 : enters after the second "...and left us here"
[G]  
 
 e:|-----------------------------------|
 B:|-----------------------------------|
 G:|-----------------------------------|
 D:|--------0---------------0----------|
 A:|--------2---------------2----------|
 E:|--3---------------3----------------|

[Cm]  
 
 e:|-----------------------------------|
 B:|-----------------------------------|
 G:|--------0---------------0----------|
 D:|--------1---------------1----------|
 A:|--3---------------3----------------|
 E:|-----------------------------------|
 e:|-----------------------------------|
 B:|-----------------------------------|
 G:|-----------------------------------|
 D:|--------3----------------3---------|
 A:|--------0----------------0---------|
 E:|--1---------------1----------------|

[G]  
 
 e:|-----------------------------------|
 B:|-----------------------------------|
 G:|-----------------------------------|
 D:|--------0---------------0----------|
 A:|--------2---------------2----------|
 E:|--3---------------3----------------|

Piano thingy 3 : I'm gonna tab it for an octave down,
because it's easier to play it that way
[G]  
 
 e:|--3--------------------------------|
 B:|--0--------------------------------|
 G:|--0--------------------------------|
 D:|--0--------------------------------|
 A:|--2-----0h2-3-2-0-2-0---0-----0-2--|
 E:|--3---3---------------3-----3------|

[Cm]  
 
 e:|-----------------------------------|
 B:|-----------------------------------|
 G:|-----------------------------------|
 D:|------0h1-0-------0h1-0---1-0------|
 A:|--3---------3-1-3-------3-----3-1--|
 E:|-----------------------------------|

[F]  
 
 e:|-----------------------------------|
 B:|-----------------------------------|
 G:|-----------------------------------|
 D:|------------------------0-1-0------|
 A:|--0-----0---1-0-1-3-1-3-------3----|
 E:|----1-3----------------------------|

[G]  
 
 e:|--3--------------------------------|
 B:|--0--------------------------------|
 G:|--0-----------------------0--------|
 D:|--0---------1---0---1-0-----0------|
 A:|--2-----------3---------3-----3----|
 E:|--3--------------------------------|

* these appear many times in the song, each time variated, so I tabbed an "inbetween" version
Bridge: electric w/ distortion and palm muting
C5, E5, G5, G5, x2
Chours: C, Cmaj(arppegio on this one, high to low),
(palm muting and distort.)G5, G5,
Outro: G,G,G,G,F,C,G,G, x2
Outro solo:
[G]  
 
 e:|--12-12-12-12-12-12-12-12-12\10-10\8-8/10-10------------------^11-r-11^--r------------------|
 B:|---------------------------------------------8-6-(slow-bend)-----------------6-(slow-bend)--|
 G:|--------------------------------------------------------------------------------------------|
 D:|--------------------------------------------------------------------------------------------|
 A:|--------------------------------------------------------------------------------------------|
 E:|--------------------------------------------------------------------------------------------|

[F] [C]  
 
 e:|------------------------------------------------------------|
 B:|--10-10-10-10-10-10-10-10-10b10-8h10p8-6-6-6-(slow-bend)-8--|
 G:|------------------------------------------------------------|
 D:|------------------------------------------------------------|
 A:|------------------------------------------------------------|
 E:|------------------------------------------------------------|

Bare end: an explosion sound and wacky piano sample that's impossible to play on a guitar
The song by itself is not so complicated, but tabbing it was preaty hard and complicated.
I hope it won't confuse you. :)

Important: The song above is NOT stored on the Chordie server. The original song is hosted at www.xguitar.com. Chordie works as a search engine and provides on-the-fly formatting. Chordie does not index songs against artists'/composers' will. To remove this song please click here.

Text color:
Chord color:
Chord grids: 
Font size:    
Page size: 

C Cm F G
Rate #1 of 4 versions

Login - add to songbook

SHARE PAGE  




You need to log in to post comments