Guitar Tabs, Chords and Lyrics
Major upgrade!! After one year development the new version of Chordie is now online! Please give feedback.


The Drowners  Suede

(Intro)
[A] [D] [C] [E]  
 
 e ---------------------------0-----
 B ------------------------------0--
 G --------------------1------------
 D ----2------------------2---------
 A -------2--0--------------2-------
 E --0--------------0---------------

(Verse)
Won't [A]someone [D]give me a gun?
[C]Oh, well it's for my [E]brother,
Well he writes the line wrote down my spine
It says "Oh do you believe in love there?"
(Chorus)
[G] [B] [C] [D]  
 
 e -------------------
 B -------------------
 G -------------5-p5--
 D --------3-h5-------
 A --3-h5-------------
 E -------------------

So slow down, slow down, you're taking me over
And so we drown, Sir we drown, stop taking me over
(Verse)
Won't someone give me some fun?
(and the skin flies all around us)
We kiss in his room to a popular tune
Oh, real drowners
(Chorus)
Slow down, slow down, you're taking me over
And so we drown, Sir we drown,
stop taking me over!

Important: The song above is NOT stored on the Chordie server. The original song is hosted at www.xguitar.com. Chordie works as a search engine and provides on-the-fly formatting. Chordie does not index songs against artists'/composers' will. To remove this song please click here.

Text color:
Chord color:
Chord grids: 
Font size:    
Page size: 

A B C D E G
Rate #1 of 2 versions

Jango Player

Login - add to songbook

SHARE PAGE  



You need to log in to post comments