Guitar Tabs, Chords and Lyrics
Update 25:10. 13:00. Site is back up running again. Songbooks are recovered. Woring on getting search back up..


Disco√Ę??s Out, Murder√Ę??s In   Suicidal Tendencies

 
 E-------------------------------------------------------------------|
 B-------------------------------------------------------------------|
 G-------------------------------------------------Slack string------|
 D------------------------------------------------------noises-------|
 A-------------------------------------------------------------------|
 E-0\-----------------0\-------------------0\------------------------|
 [PM] [PM] [PM] [PM] [PM] [-------PM-----]~~~
 E-----------------------------------------------|
 B-----------------------------------------------|
 G-----------------------------------------------|
 D-----------------------------------------------|
 A-2----2----2----------2----2-------------------|
 E-0-00-0-00-0-00-0-000-0-00-0-00-5-000-3-000-2--| Rpt 4 X

 


 


 ~~~~


 

 
 E-----------------|
 B------10-12br----|
 G-9-12------------|
 D-----------------|
 A-----------------|
 E-----------------|Rpt 3 x

 


 


 Trem Dive Release Dive


 

 
 E-----------------|
 B-10\---9----/10--|
 G-----------------|
 D-----------------|
 A-----------------|
 E-----------------|

 


 


 Guitar 1


 ~~~~


 

 
 E[-----------------|
 B[------10-12br----|
 G[-9-12------------|
 D[-----------------|
 A[-----------------|
 E[-----------------|

 


 [Guitar 2


 [ ~~~~


 

 
 E[------10-12br----|
 B[-8-9-------------|
 G[-----------------|
 D[-----------------|
 A[-----------------|
 E[-----------------|Rpt 3 x

 


 


 Guitar 1


 Trem Dive Release Dive


 ~~~~~~~~~~~


 

 
 E[-----------------|
 B[-10\---9----/10--|
 G[-----------------|
 D[-----------------|
 A[-----------------|
 E[-----------------|

 


 [Guitar 2


 [Trem Dive Release Dive


 [ ~~~~~~~~~~~


 

 
 E[-12\---10---/12--|
 B[-----------------|
 G[-----------------|
 D[-----------------|
 A[-----------------|
 E[-----------------|

 


 Rpt


 


 

 
 E--------------------|
 B--------------------|
 G--------------------|
 D--------------------|
 A-2-----(2)-------2--|
 E-0-----(0)-------0--|

 


 


 Drum Fill


 


 Main / Verse Riff


 


 

 
 PM [------PM------] PM [------PM------]
 E---------------------------------------------------|
 B---------------------------------------------------|
 G---------------------------------------------------|
 D---------------------------------------------------|
 A-9\7---5------------------9\7---5------------------|
 E-7\5-0-3-3333333333333333-7\5-0-3-0000000000000000-| Rpt 3 X
 PM [--PM--] [--PM--]
 E----------------------------|
 B----------------------------|
 G----------------------------|
 D----------------------------|
 A-9\7---5--------5-3---------|
 E-7\5-0-3-33333333-11111111--|

 


 


 Chorus


 


 

 
 [----PM----] [----PM----] [---PM---]
 E--------------------------------------------------------|
 B--------------------------------------------------------|
 G--------------------------------------------------------|
 D-------------9-9\------------12-12\10------------10109--|
 A-------------7-7\------------10-10\8-------------8-8\7--|
 E-0-0-0-0-0-0-----0-0-0-0-0-0---------0-0-0-0-0-0--------|
 [----PM----] [----PM----] [---PM---] [--PM--]
 E----------------------------------------------------------------|
 B----------------------------------------------------------------|
 G----------------------------------------------------------------|
 D-------------9-9\------------12-12\10-----------10--------------|
 A-------------7-7\------------10-10\8------------8----------5-4--|
 E-0-0-0-0-0-0-----0-0-0-0-0-0---------0-0-0-0-0-0---00-5p00-3-2--|
 [----PM----] [----PM----] [---PM---]
 E--------------------------------------------------------|
 B--------------------------------------------------------|
 G--------------------------------------------------------|
 D-------------9-9\------------12-12\10------------10109--|
 A-------------7-7\------------10-10\8-------------8-8\7--|
 E-0-0-0-0-0-0-----0-0-0-0-0-0---------0-0-0-0-0-0--------|
 [----PM----] [----PM----] [---PM---]
 E--------------------------------------------------------|
 B--------------------------------------------------------|
 G--------------------------------------------------------|
 D-------------9-9\------------12-12\10------------10109--|
 A-------------7-7\------------10-10\8-------------8-8\7--|
 E-0-0-0-0-0-0-----0-0-0-0-0-0---------0-0-0-0-0-0--------|
 [----PM----]
 E-----------------------------------|
 B-----------------------------------|
 G-----------------------------------|
 D-------------12-12\----------------|
 A-------------10-10\2-----(2)----2--|
 E-0-0-0-0-0-0-------0-----(0)----0--|

 


 


 Rpt Verse Riff 3 X


 


 Mid Section


 


 

 
 [-PM-] [--------PM--------][-PM-] [---PM--] [--PM--]
 E---------------------------------------------------------|
 B---------------------------------------------------------|
 G---------------------------------------------------------|
 D---------------------------------------------0-2---------|
 A-2-----5-5-5-5-5-5-5-5-5-5-5-2-----5-2-2-2-2-0-2-2-2-2-2-|
 E---5p0-3-3-3-3-3-3-3-3-3-3-3---5p0-3-0-0-0-0-----0-0-0-0-| Rpt 4 X

 


 


 [PM] [PM] 


 

 
 E-----------------------|
 B-----------------------|
 G-----------------------|
 D-7/8/9-----8/9-----8/9-|
 A-5/6/7-----6/7-----6/7-|
 E-------0-0-----0-0-----| Rpt 3 X

 


 


 [-PM-] 


 

 
 E----------------------------------------|
 B----------------------------------------|
 G----------------------------------------|
 D-7/8/9------------(9)-------------------|
 A-5/6/7------------(7)-------------12\---|
 E-----0------------(0)-------------12\---|

 


 


 Backing For guitar solo


 


 

 
 [PM] [PM] [PM] [PM] [PM] [PM][-----PM-----]
 E-----------------------------------------------|
 B-----------------------------------------------|
 G-----------------------------------------------|
 D-----------------------------------------------|
 A-2----2----4----4----/5----5------5---4---2----|
 E-0-00-0-00-2-22-2-0-2/3-33-3-33-7---5---5---3--| Rpt 4 X
 [PM] [PM] [PM] [PM] [PM] [PM] [----PM----]
 E--------------------------------------------|
 B--------------------------------------------|
 G--------------------------------------------|
 D--------------------------------------------|
 A-2----2----5----5----9----9----8----8\7\5\4-|
 E-0-00-0-00-3-33-3-33-7-77-7-77-6-66-6\5\3\2-| Rpt 4 X
 E--------------------|
 B--------------------|
 G--------------------|
 D--------------------|
 A-2-----(2)-------2--|
 E-0-----(0)-------0--|

 


 


 Rpt Verse structure


 Rpt Chorus


 


 Ending


 


 

 
 E--------------------|
 B--------------------|
 G--------------------|
 D--------------------|
 A-2-----(2)-------2--|
 E-0-----(0)-------0--|


Important: The song above is NOT stored on the Chordie server. The original song is hosted at www.xguitar.com. Chordie works as a search engine and provides on-the-fly formatting. Chordie does not index songs against artists'/composers' will. To remove this song please click here.

This song is displayed as text-only. Transposing and tuning is only available for chordpro-songs.
Rate #2 of 3 versions

Login - add to songbook

SHARE PAGE  




You need to log in to post comments