Guitar Tabs, Chords and Lyrics
Major upgrade!! After one year development the new version of Chordie is now online! Please give feedback.


Science  System of a Down

Track: 10
Song: Science
Tuning: CGCFAD (Drop D & Full Step Down)
Words by Serj Tankian
Music by Daron Malakian
Transcribed by Tim Chambers
Intro
Gtr I
 
 PM--------------------------------|
 |--------------------|---------------------|
 |--------------------|---------------------|
 |-<7>----------------|---------------------|
 |------0-0-0-0-0-0-0-|-0-0-0-0-0-0-0-0-0-0-|
 |--------------------|---------------------|
 |--------------------|---------------------|
 PM--------------------------------|
 |--------------------|----------------------|
 |--------------------|----------------------|
 |-<7>----------------|----------------------|
 |------0-0-0-0-0-0-0-|-0-0-0-0-0-0-0-0-0-0--|
 |--------------------|----------------------|
 |--------------------|----------------------|
 PM----------| PM----------|
 |--------------------|--------------------|
 |--------------------|--------------------|
 |-<7>----------------|-<7>----------------|
 |------0-0-0-0-0-0-0-|------0-0-0-0-0-0-0-|
 |--------------------|--------------------|
 |--------------------|--------------------|

PM| PM|
 
 |-------------------|---------------------||
 |-------------------|---------------------||
 |-<7>------<7>------|-<7>------<7>--------||
 |------0-0------0-0-|------0-0------0-0---||
 |-------------------|---------------------||
 |-------------------|---------------------||

D5 N.C.
 
 PM--------| PM--------| PM--------|
 ||-----------------|----------------|----------------|------------------||
 ||o----------------|----------------|----------------|-----------------o||
 ||--7--------------|-7--------------|-7--------------|------------------||
 ||--7--------------|-7--------------|-7--------------|----------5-------||
 ||o-5--------------|-5--------------|-5--------------|----5-7-8---8-7--o||
 ||--0--0-0-0-0-0-0-|-0--0-0-0-0-0-0-|-0--0-0-0-0-0-0-|-8----------------||

1st Verse
N.C.
 
 PM--------------------------------|
 |------------------|---------------------|
 |------------------|---------------------|
 |------------------|---------------------|
 |-1--0-0-0-0-0-0-0-|-0-0-0-0-0-0-0-0-0-0-|
 |------------------|---------------------|
 |------------------|---------------------|
 PM--------------------------------|
 |------------------|---------------------|
 |------------------|---------------------|
 |------------------|---------------------|
 |-1--0-0-0-0-0-0-0-|-0-0-0-0-0-0-0-0-0-0-|
 |------------------|---------------------|
 |------------------|---------------------|
 PM----------| PM----------| PM| PM| PM| PM|
 |------------------|------------------|---------------|-----------------|
 |------------------|------------------|---------------|-----------------|
 |------------------|------------------|---------------|-----------------|
 |-1--0-0-0-0-0-0-0-|-1--0-0-0-0-0-0-0-|-1--0-0-1--0-0-|-1--0-0-1--0-0---|
 |------------------|------------------|---------------|-----------------|
 |------------------|------------------|---------------|-----------------|
 PM--------------------------------|
 |--------------------|---------------------|
 |--------------------|---------------------|
 |-<7>----------------|---------------------|
 |------0-0-0-0-0-0-0-|-0-0-0-0-0-0-0-0-0-0-|
 |--------------------|---------------------|
 |--------------------|---------------------|
 PM--------------------------------|
 |--------------------|---------------------|
 |--------------------|---------------------|
 |-<7>----------------|---------------------|
 |------0-0-0-0-0-0-0-|-0-0-0-0-0-0-0-0-0-0-|
 |--------------------|---------------------|
 |--------------------|---------------------|
 PM----------| PM----------|
 |--------------------|--------------------|
 |--------------------|--------------------|
 |-<7>----------------|-<7>----------------|
 |------0-0-0-0-0-0-0-|------0-0-0-0-0-0-0-|
 |--------------------|--------------------|
 |--------------------|--------------------|

PM| PM| PM| PM|
 
 |-------------------|---------------------|
 |-------------------|---------------------|
 |-<7>------<7>------|-<7>------<7>--------|
 |------0-0------0-0-|------0-0------0-0---|
 |-------------------|---------------------|
 |-------------------|---------------------|

Chorus
D5 N.C.
 
 PM--------| PM--------| PM--------|
 ||-----------------|----------------|----------------|------------------||
 ||o----------------|----------------|----------------|-----------------o||
 ||--7--------------|-7--------------|-7--------------|------------------||
 ||--7--------------|-7--------------|-7--------------|----------5-------||
 ||o-5--------------|-5--------------|-5--------------|----5-7-8---8-7--o||
 ||--0--0-0-0-0-0-0-|-0--0-0-0-0-0-0-|-0--0-0-0-0-0-0-|-8----------------||

2nd Verse
N.C.
 
 PM--------------------------------|
 |------------------|---------------------|
 |------------------|---------------------|
 |------------------|---------------------|
 |-1--0-0-0-0-0-0-0-|-0-0-0-0-0-0-0-0-0-0-|
 |------------------|---------------------|
 |------------------|---------------------|
 PM--------------------------------|
 |------------------|---------------------|
 |------------------|---------------------|
 |------------------|---------------------|
 |-1--0-0-0-0-0-0-0-|-0-0-0-0-0-0-0-0-0-0-|
 |------------------|---------------------|
 |------------------|---------------------|
 PM----------| PM----------|
 |--------------------|--------------------|
 |--------------------|--------------------|
 |-<7>----------------|-<7>----------------|
 |------0-0-0-0-0-0-0-|------0-0-0-0-0-0-0-|
 |--------------------|--------------------|
 |--------------------|--------------------|

PM| PM| PM| PM|
 
 |-------------------|---------------------|
 |-------------------|---------------------|
 |-<7>------<7>------|-<7>------<7>--------|
 |------0-0------0-0-|------0-0------0-0---|
 |-------------------|---------------------|
 |-------------------|---------------------|

Chorus
D5 N.C.
 
 PM--------| PM--------| PM--------|
 ||-----------------|----------------|----------------|------------------||
 ||o----------------|----------------|----------------|-----------------o||
 ||--7--------------|-7--------------|-7--------------|------------------||
 ||--7--------------|-7--------------|-7--------------|----------5-------||
 ||o-5--------------|-5--------------|-5--------------|----5-7-8---8-7--o||
 ||--0--0-0-0-0-0-0-|-0--0-0-0-0-0-0-|-0--0-0-0-0-0-0-|-8----------------||

D5 E5 F5 N.C.
 
 ||-----------|----------|----------|------------------||
 ||o----------|----------|----------|-----------------o||
 ||-----------|----------|----------|------------------||
 ||--0--------|-2--------|-3--------|----------5-------||
 ||o-0--------|-2--------|-3--------|----5-7-8---8-7--o||
 ||--0--------|-2--------|-3--------|-8----------------||

Interlude
[D5] 3x
 
 ||----------------------|------------------------||
 ||o---------------------|-----------------------o||
 ||----------------------|------------------------||
 ||--0---------0---------|-0----------------------||
 ||o-0---------0---------|-0---------------------o||
 ||--0---------0---------|-0----------------------||

|
| Gtrs II, III
 
 | PM---------------------------------------|

| 3x
 
 ||----------------------|------------------------||
 ||o---------------------|-----------------------o||
 ||----------------------|------------------------||
 ||----------------------|-----------10-----------||
 ||o---0-10-12---0-12-13-|---0-10-12----13-12-13-o||
 ||--0---------0---------|-0----------------------||

N.C.
 
 |-----------------|--------------------|
 |-----------------|--------------------|
 |-----------------|--------------------|
 |-----------------|--------------------|
 |-----------------|--------------------|
 |-----------------|--------------------|

|
| Gtrs II, III, IV
 
 |-----------------|--------------------|
 |-----------------|--------------------|
 |-----------------|--------------------|
 |-----------------|--------------------|
 |----8-8-10--10-8-|-(8)-7--7-7-8-7-----|
 |-0---------------|----------------10--|

Gtrs II, III, IV
 
 ||-------------------|-----------------------|
 ||o------------------|-----------------------|
 ||-------------------|-----------------------|
 ||-------------------|-----------------------|
 ||o----10-10-12---13-|-(13)-10-12--12--12-12-|
 ||--0----------------|-----------------------|
 |------------------|------------------------|
 |------------------|------------------------|
 |------------------|------------------------|
 |---------------10-|-(10)-------------------|
 |----10-10-12------|------13-12--12--12-12--|
 |-0----------------|------------------------|
 |------------------|-----------------------|
 |------------------|-----------------------|
 |------------------|-----------------------|
 |------------------|-----------------------|
 |----10-10-12---13-|-(13)-10-12--12--12-12-|
 |-0----------------|-----------------------|
 |-----------------|--------------------||
 |-----------------|-------------------o||
 |-----------------|--------------------||
 |-----------------|--------------------||
 |----8-8-10--10-8-|-(8)-7--7-7-8-7----o||
 |-0---------------|----------------10--||
 |------------------|-----------------------|
 |------------------|-----------------------|
 |------------------|-----------------------|
 |------------------|-----------------------|
 |----10-10-12---13-|-(13)-10-12--12--12-13-|
 |-0----------------|-----------------------|
 |-----------------------|---------------------||
 |-----------------------|---------------------||
 |-----------------------|---------------------||
 |-----------------------|---------------------||
 |-(13)-10-12--12--12-13-|-(13)-10-12--12--12--||
 |-----------------------|---------------------||

3rd Verse
N.C.
Gtr I
 
 PM----------| PM----------|
 |------------------|------------------|
 |------------------|------------------|
 |------------------|------------------|
 |-1--0-0-0-0-0-0-0-|-1--0-0-0-0-0-0-0-|
 |------------------|------------------|
 |------------------|------------------|

PM| PM| PM| PM|
 
 |-------------------|---------------------||
 |-------------------|---------------------||
 |-<7>------<7>------|-<7>------<7>--------||
 |------0-0------0-0-|------0-0------0-0---||
 |-------------------|---------------------||
 |-------------------|---------------------||

Chorus
D5 N.C.
 
 PM--------| PM--------| PM--------|
 ||-----------------|----------------|----------------|------------------||
 ||o----------------|----------------|----------------|-----------------o||
 ||--7--------------|-7--------------|-7--------------|------------------||
 ||--7--------------|-7--------------|-7--------------|----------5-------||
 ||o-5--------------|-5--------------|-5--------------|----5-7-8---8-7--o||
 ||--0--0-0-0-0-0-0-|-0--0-0-0-0-0-0-|-0--0-0-0-0-0-0-|-8----------------||
 PM---------------------------------------------------------------|
 ||-----------------------|----------------------|-----------------------|
 ||o----------------------|----------------------|-----------------------|
 ||-----------------------|----------------------|-----------------------|
 ||--0--0-0-0-0-0-0-0-0-0-|-2--2-2-2-2-2-2-2-2-2-|-3--3-3-3-3-3-3-3-3-3--|
 ||o----------------------|----------------------|-----------------------|
 ||-----------------------|----------------------|-----------------------|

[D5] [E5]  
 
 |-----------------||-||-----------|------|
 |----------------o||-||o----------|------|
 |-----------------||-||-----------|------|
 |----------5------||-||--0--------|-2----|
 |----5-7-8---8-7-o||-||o-0--------|-2----|
 |-8---------------||-||--0--------|-2----|

F5 N.C. D5
 
 |----------|-----------------||----------*|
 |----------|----------------o||----------*|
 |----------|-----------------||----------*|
 |-3--------|----------5------||-0--------*|
 |-3--------|----5-7-8---8-7-o||-0--------*|
 |-3--------|-8---------------||-0--------*|


Important: The song above is NOT stored on the Chordie server. The original song is hosted at www.xguitar.com. Chordie works as a search engine and provides on-the-fly formatting. Chordie does not index songs against artists'/composers' will. To remove this song please click here.

Text color:
Chord color:
Chord grids: 
Font size:    
Page size: 

D5 E5
Rate #1 of 1 versions

Jango Player

Login - add to songbook

SHARE PAGE  



You need to log in to post comments