Guitar Tabs, Chords and Lyrics
Major upgrade!! After one year development the new version of Chordie is now online! Please give feedback.


Hunger Strike  Temple of the Dog

Temple of the Dog (Temple of the Dog)
HUNGER STRIKE - tabbed by Evan Cowan <ecowan@uclink4.berkeley.edu>
Dropped-D tuning
5^--harmonic at 5th fret
 
 -|-----------------------------------------------------------------|----------
 -|-----0---3-----3-----0---3-----3-----0---3-----3-----0---3-----3-|----------
 -|---0---0---0-------0---0---0-------0---0---0-------0---0---0-----|----------
 -|-0-----------0---2-----------2---0-----------0---0-----------0---|----------
 -|-----------------------------------------------------------------|----------
 -|-----------------------------------------------------------------|----------

Intro/Verse, G1 6x
 
 -|-----------------------------------------------------------------|----------
 -|-----3---3-----3-----0---3-----3-----0---3-----3-----0---3-----3-|----------
 -|---0---0---0-------0---0---0-------0---0---0-------0---0---0-----|----------
 -|-0-----------0---2-----------2---0-----------0---0-----------0---|----------
 -|-----------------------------------------------------------------|----------
 -|-----------------------------------------------------------------|----------

Slight variation
 
 -|-----------------------------------------------------------------|----------
 -|-----0---3-----3-----0---3-----3-----0---3-----3-----0---3-----3-|----------
 -|---0---0---0-------0---0---0-------0---0---0-------0---0---0-----|----------
 -|-0-----------0---2-----------2---0-----------0---0-----------0---|----------
 -|-----------------------------------------------------------------|----------
 -|-----------------------------------------------------------------|----------

3x
 
 -|-----------------------------------------------------------------|----------
 -|-----------------------------------------------------------------|----------
 -|-----------------------------------------------------------------|----------
 -|-0-----------0---2-----------2---0-----------0---0-----------0---|----------
 -|-----------------------------------------------------------------|----------
 -|-----------------------------------------------------------------|----------

Intro, G2 10x
 
 -|-----------------------------------------------------------------|----------
 -|-----0---3-----3-----0---3-----3-----0---3-----3-----0---3-----3-|----------
 -|---0---0---0-------0---0---0-------0---0---0-------0---0---0-----|----------
 -|-0-----------0---2-----------2---0-----------0---0-----------0---|----------
 -|-----------------------------------------------------------------|----------
 -|-----------------------------------------------------------------|----------

Ed vox enters, G1 11x
 
 -|-----------------------------------------------------------------|----------
 -|-----0---3-----3-----0---3-----3-----0---3-----3-/5--3--0-3vv----|----------
 -|---0---0---0-------0---0---0-------0---0---0---------------------|----------
 -|-0-----------0---2-----------2---0-----------0-------------------|----------
 -|-----------------------------------------------------------------|----------
 -|-----------------------------------------------------------------|----------

Ed vox, G2 11x
 
 -|----------------------|--------------------------|--------------------------
 -|----------------------|--------------------------|--------------------------
 -|----------------------|--------------------------|--------------------------
 -|-0-2--0-2---4b5r4vvvv-|-x-x-0-2--0-2---4b5r4vvvv-|--------------------------
 -|-0-2--0-2-------------|-x-x-0-2--0-2-------------|--------------------------
 -|-0-2--0-2-------------|-x-x-0-2--0-2-------------|--------------------------

G1 3x
 
 -|----------------------|--------------------------|--------------------------
 -|----------------------|--------------------------|--------------------------
 -|----------------------|--------------------------|--------------------------
 -|-0-2--0-2-------------|-x-x-0-2--0-2-------------|--------------------------
 -|-0-2--0-2-------------|-x-x-0-2--0-2-------------|--------------------------
 -|-0-2--0-2-------------|-x-x-0-2--0-2-------------|--------------------------

G2 3x
 
 -|-----------------------------------------------------------------|----------
 -|-----0---3-----3-----0---3-----3-----0---3-----3-----0---3-----3-|----------
 -|---0---0---0-------0---0---0-------0---0---0-------0---0---0-----|----------
 -|-0-----------0---2-----------2---0-----------0---0-----------0---|----------
 -|-----------------------------------------------------------------|----------
 -|-----------------------------------------------------------------|----------

G1 4x
 
 -|---------3-------------------------------------------------------|----------
 -|---------3-------------------------------3---------------3-------|----------
 -|---------0-------------------------------0---------------0-------|----------
 -|-------------------------5^--------------------------------------|----------
 -|-----------------------------------------------------------------|----------
 -|-----------------------------------------------------------------|----------

[G2]  
 
 -|---------3-------------------------------3---------------3-------|----------
 -|---------3-------------------------------3---------------3-------|----------
 -|---------0-------------------------------0---------------0-------|----------
 -|-------------------------5^--------------------------------------|----------
 -|-----------------------------------------------------------------|----------
 -|-----------------------------------------------------------------|----------

Repeat last 2 lines
 
 -|----------------------|--------------------------|--------------------------
 -|----------------------|--------------------------|--------------------------
 -|----------------------|--------------------------|--------------------------
 -|-0-2--0-2---4b5r4vvvv-|-x-x-0-2--0-2---4b5r4vvvv-|--------------------------
 -|-0-2--0-2-------------|-x-x-0-2--0-2-------------|--------------------------
 -|-0-2--0-2-------------|-x-x-0-2--0-2-------------|--------------------------

G1 3x
 
 -|----------------------|--------------------------|--------------------------
 -|----------------------|--------------------------|--------------------------
 -|----------------------|--------------------------|--------------------------
 -|-0-2--0-2-------------|-x-x-0-2--0-2-------------|--------------------------
 -|-0-2--0-2-------------|-x-x-0-2--0-2-------------|--------------------------
 -|-0-2--0-2-------------|-x-x-0-2--0-2-------------|--------------------------

G2 3x
 
 -|-----------------------------------------------------------------|----------
 -|-----0---3-----3-----0---3-----3-----0---3-----3-----0---3-----3-|----------
 -|---0---0---0-------0---0---0-------0---0---0-------0---0---0-----|----------
 -|-0-----------0---2-----------2---0-----------0---0-----------0---|----------
 -|-----------------------------------------------------------------|----------
 -|-----------------------------------------------------------------|----------

G1 4x
 
 -|---------3-------------------------------------------------------|----------
 -|---------3-------------------------------3---------------3-------|----------
 -|---------0-------------------------------0---------------0-------|----------
 -|-------------------------5^--------------------------------------|----------
 -|-----------------------------------------------------------------|----------
 -|-----------------------------------------------------------------|----------

[G2]  
 
 -|---------3-------------------------------3---------------3-------|----------
 -|---------3-------------------------------3---------------3-------|----------
 -|---------0-------------------------------0---------------0-------|----------
 -|-------------------------5^--------------------------------------|----------
 -|-----------------------------------------------------------------|----------
 -|-----------------------------------------------------------------|----------

Repeat last 2 lines
 
 -|----------------------|-----------------------------------------------------
 -|----------------------|-----------------------------------------------------
 -|----------------------|-----------------------------------------------------
 -|-0-2--0-2---4b5r4-----|-----------------------------------------------------
 -|-0-2--0-2-------------|-----------------------------------------------------
 -|-0-2--0-2-------------|-----------------------------------------------------

[G1] [End]  
 
 -|----------------------|-----------------------------------------------------
 -|----------------------|-----------------------------------------------------
 -|----------------------|-----------------------------------------------------
 -|-0-2--0-2-------------|-----------------------------------------------------
 -|-0-2--0-2-------------|-----------------------------------------------------
 -|-0-2--0-2-------------|-----------------------------------------------------

G2 let sustain End
Transcribed by Evan Cowan <ecowan@uclink4.berkeley.edu> (03/30/99)

Important: The song above is NOT stored on the Chordie server. The original song is hosted at www.xguitar.com. Chordie works as a search engine and provides on-the-fly formatting. Chordie does not index songs against artists'/composers' will. To remove this song please click here.

Text color:
Chord color:
Chord grids: 
Font size:    
Page size: 

G2
Rate #4 of 6 versions

Jango Player

Login - add to songbook

SHARE PAGE  




You need to log in to post comments