Guitar Tabs, Chords and Lyrics
Server problems seems to be fixed. Chordie has been experiencing problems with songs disappearing. These issues now seems to be fixed, but still verifying the fix. If you find anything strange, please email admin@chordie.com.


Legions of the Dead   Testament

 
 C# ---------------------------------------------------------------------------------------
 Ab ---------------------------------------------------------------------------------------
 E -------7--9--10--9---------------------------------------------------------7--9--10--9-
 B -5--8--7--9--10--9---------------------------------------------------5--8--7--9--10--9-
 F# -5--8--5--7--8 --7------8-7-----8-7-----8-7-----8-7-0-5--8-7-----8-7-5--8--5--7--8 --7-
 C# -3--6--------------0-0------0-0-----0-0-----0-0--------------0-0-----3--6--------------
 C# -------------------------------------------------------------
 Ab -------------------------------------------------------------
 E ------------------------------------------------------7--10--
 B ---------------------8-7--------------------8-7-5--8--7--10--
 F# -----8-7-----8-7-------------8-7-5--8-7---------5--8--5--8 --
 C# -0-0-----0-0-----0-0-----0-0------------0-0-----3--6---------

 


 


 Riff 1


 


 

 
 C# ------------------------------------------------------------------------------------------------------
 Ab ------------------------------------------------------------------------------------------------------
 E ------------------------------------------------------------------------------------------------------
 B ---------8-7-------------8-7-------------8-7-------------8-7--------------8-7-------------8-7---------
 F# -8-7-------------8-7---------7-5-8-7-------------8-7----------7-5-8-7-------------8-7-------------7-5-
 C# -----0-0-----0-0-----0-0-------------0-0-----0-0-----0-0--------------0-0-----0-0-----0-0-----0-0-----

 


 


 [1] [2]  


 

 
 C# ----------------------------- --------------------------
 Ab ----------------------------- --------------------------
 E -------------------7--9--10-- -------------------7--10--
 B ---------8-7-5--8--7--9--10-- ---------8-7-5--8--7--10--
 F# -8-7---------5--8--5--7--8 -- -8-7---------5--8--5--8 --
 C# -----0-0-----3--6------------ -----0-0-----3--6---------

 


 


 Riff 2


 


 

 
 C# -------------------------------------------------------------------------------------------------------------------------
 Ab -------------------------------------------------------------------------------------------------------------------------
 E ---------------------------------------------------------------------------------------------------------------7--9--10--
 B -----------------------------------------------8-7---------------------------------------------------8-7-5--8--7--9--10--
 F# -8-7-----8-7-----8-7-----8-7-5--8-7-----8-7-------------8-7-5--8-7-----8-7-----8-7-----8-7-5-8-7---------5--8--5--7--8 --
 C# -----0-0-----0-0-----0-0------------0-0-----0-0-----0-0------------0-0-----0-0-----0-0-----------0-0-----3--6------------

 


 


 Riff 2A


 


 

 
 C# --------------------------------------------------------------------------------------------------------------------------
 Ab --------------------------------------------------------------------------------------------------------------------------
 E ------------------------------------------------7-6-------------------------------------------------------------7--9--10--
 B ------------------------------------------------------------------------------------------------------8-7-5--8--7--9--10--
 F# -8-7-----8-7-----8-7-----8-7-5--8-7-----8-7-------------8-7-5--8-7-----8-7-----8-7-----8-7-5--8-7---------5--8--5--7--8 --
 C# -----0-0-----0-0-----0-0------------0-0-----0-0-----0-0------------0-0-----0-0-----0-0------------0-0-----3--6------------

 


 


 Riff 3


 


 

 
 C# ------------------------------------------------------------------------------------------
 Ab ------------------------------------------------------------------------------------------
 E -------------------------------------------------------------------------------11----8----
 B -------------------------------------------------------------------------------11----8----
 F# -7*--------9*----10*----6*--------9*----6*----7*--------10*----9*----6\--------9 ----6----
 C# ------------------------------------------------------------------------------------------

 


 


 Riff 3A


 


 

 
 C# -------------------------------------------------------------------------------------------
 Ab -------------------------------------------------------------------------------------------
 E ----------------------------------------------9*--------12*----11*--------------11----8----
 B --------------------------------------------------------------------------------11----8----
 F# -7*--------9*----10*----6*--------9*----6*----------------------------6\--------9 ----6----
 C# -------------------------------------------------------------------------------------------

 


 


 Riff 4


 


 

 
 C# ------------------------------------------------------------------------------------------------------------------
 Ab ------------------------------------------------------------------------------------------------------------------
 E -9-------9-10---9-------9-7---9-------9--------7--9--10--9-------9-10---9-------9-12---9-------9--------7--9--10--
 B -9---------------------------------------5--8--7--9--10--9----------------------------------------5--8--7--9--10--
 F# -7-------7-8 ---7-------7-5---7-------7--5--8--5--7--8 --7-------7-8 ---7-------7-10---7-------7--5--8--5--7--8 --
 C# ---0-0-0---------0-0-0---------0-0-0-----3--6--------------0-0-0----------0-0-0----------0-0-0----3--6------------
 C# -----------------------------------------------------------------------------------------------------------
 Ab -----------------------------------------------------------------------------------------------------------
 E ------------------------------------------7--9--10--9-------9-10---9-------9-7---9-------9--------7--10----
 B -9--9--9-11---9--9--9-11---9--9--2--5--8--7--9--10--9--------------9-------9-7---9-------9-5---8--7--10----
 F# -7--7--7-9 ---7--7--7-9 ---7--7--2--5--8--5--7--8 --7-------7-8 ---7-------7-5---7-------7-5---8--5--8 ----
 C# -7--7--7-9 ---7--7--7-9 ---7--7--0--3--6--------------0-0-0----------0-0-0---------0-0-0---3---6-----------

 


 


 Riff 6


 


 

 
 C# -------------------------------------------------------------------------------------------------------------------
 Ab -------------------------------------------------------------------------------------------------------------------
 E -------------------------------------------------------------------------------------------------------------------
 B -------------------------------------------------7*----6*----------------------------------------7*----6*--7*--6*--
 F# -----------------------------------------------------------7*------------------------------------------------------
 C# -0*--6*--5*--6*--0*--6*--5*--6*--0*--6*--5*--6*------------------0*--6*--5*--6*--0*--6*--5*--6*--------------------
 C# -------------
 Ab -------------
 E -------------
 B -------------
 F# -8*--5*--7*--
 C# -------------

 


 


 Riff 6A


 


 

 
 C# ------------------------------------------------------------------------------------------------------------------------
 Ab ------------------------------------------------------------------------------------------------------------------------
 E ------------------------------------------------------------------------------------------------------------------------
 B -------------------------------------------------10*----9*------------------------------------------10*----9*--10*--9*--
 F# ------------------------------------------------------------10*---------------------------------------------------------
 C# -0*--6*--5*--6*--0*--6*--5*--6*--0*--6*--5*--6*--------------------0*--6*--5*--6*--0*--6*--5*--6*-----------------------
 C# --------------
 Ab --------------
 E --------------
 B -7*-----------
 F# -----8*--10*--
 C# --------------

 


 


 Riff 7


 


 

 
 C# -------------------------------------------------
 Ab -------------------------------------------------
 E -------------------------------------------------
 B -2--5--7--8--7--5--7--8--2--5--7--8--7--5--7--5--
 F# -2--5--7--8--7--5--7--8--2--5--7--8--7--5--7--5--
 C# -0--3--5--6--5--3--5--6--0--3--5--6--5--3--5--3--

 


 


 Riff 8


 


 

 
 C# ------------------------------------------------------------------
 Ab ------------------------------------------------------------------
 E -9------------------------9-9-9-9---------------9-9-9-9-9-9-9-9-9-
 B ------------------------------------------------------------------
 F# -7------------------------7-7-7-7---------------7-7-7-7-7-7-7-7-7-
 C# ----0-0-0-0-0-0-0-0-0-0-0---------0-0-0-0-0-0-0-------------------

 


 


 Riff 9


 


 

 
 C# ----------------------------------------------------------------
 Ab ----------------------------------------------------------------
 E -----------------------------------10-9-7-9--------10-9-7-9-----
 B ----------------------------------------------------------------
 F# -----------------------------------8 -7-5-7--------8 -7-5-7-----
 C# -0-0-0-0-0-0-0-0-0-0-0-0-0-0-0-0-0-----------0-0-0----------0-0-

 


 


 Riff 10


 


 

 
 C# --------------------------------------------------------------------------------------------------
 Ab --------------------------------------------------------------------------------------------------
 E -10--------------------9--7--9--7--9--7--9-10---9--7--9--7--9--7--9-7---9--7--9--7--10--7--9-10---
 B -----------------------9--7--9--7--9--7--9-10---9--7--9--7--9--7--9-7---9--7--9--7--10--7--9-10---
 F# -8 --------------------7--5--7--5--7--5--7-8 ---7--5--7--5--7--5--7-5---7--5--7--5--8 --5--7-8 ---
 C# -----------/12\-----------------------------------------------------------------------------------
 C# --------------------------
 Ab --------------------------
 E -9-7------------7--9--10--
 B -9-7---7-5---8--7--9--10--
 F# -7-5---7-5---8--5--7--8 --
 C# -------5-3---6------------

 


 


 Riff 11


 


 

 
 C# ------------------------------------------------------------------------------------------------------------------------
 Ab ------------------------------------------------------------------------------------------------------------------------
 E --------------------------------------------------7--9--10--9-------------------------------------------------------10--
 B --------------------------------------------5--8--7--9--10--9--------------8-7--------------------------------5--8--10--
 F# -7------8-7-----8-7-----8-7-5--8-7------8-7-5--8--5--7--8 --7------8-7-------------8-7-----8-7-5--8-7-----8-7-5--8--8 --
 C# ----0-0-----0-0-----0-0-------------0-0-----3--6---------------0-0-----0-0-----0-0-----0-0------------0-0-----3--6------


Important: The song above is NOT stored on the Chordie server. The original song is hosted at www.xguitar.com. Chordie works as a search engine and provides on-the-fly formatting. Chordie does not index songs against artists'/composers' will. To remove this song please click here.

This song is displayed as text-only. Transposing and tuning is only available for chordpro-songs.
Rate #1 of 1 versions

Login - add to songbook

SHARE PAGE  



You need to log in to post comments