Guitar Tabs, Chords and Lyrics
Major upgrade!! After one year development the new version of Chordie is now online! Please give feedback.


All I Could Bleed  Testament

intro:
[E5] [D5] [E5D5E5D5] [E5D5E5] [D5] [E5] [D5E5D5] [E5] [D5] [E5]  
 
 -------------------------------------------------------------------------------------------------|
 -------------------------------------------------------------------------------------------------|
 -------------------------------------------------------------------------------------------------|
 -------------------------------------------------------------------------------------------------|
 -5---5h7---7-5---5h7---7-5---5h7---7-5---5h7---7-5---5h7---7-5---5h7---7-5---5h7---7-5---5h7---7-|
 ---x-----0-----x-----0-----x-----0-----x-----0-----x-----0-----x-----0-----x-----0-----x-----0---|

Main riff:
 
 -------------------------------------------------------------|------------------------------------------------------|
 -------------------------------------------------------------|------------------------------------------------------|
 -------------------------------------------------------------|---------------------------0--------------------------|
 -2---2-2----2--2-----2-2-----2---2--2--2--2---2-2-2-2-2-2-2-2|-2-------------------------0--------/-----------------|
 -2---2-2----2--2-----2-2-----2---2--2--2--2---2-2-2-2-2-2-2-2|-2--------1p0---1p0---1p0--0-------5b(1/2)----5---7-7-|
 -0---0-0----0--0-----0-0-----0---0--0--0--0---0-0-0-0-0-0-0-0|-0--0-0-0-----3-----3--------0-0-0----------0---0-----|

fourth time:(almost same) a.h.-
 
 ---------------------------------------|---|---------------------------------------------------------------------------------------------------------|
 ---------------------------------------|---|---------------------------------------------------------------------------------------------------------|
 ---------------------------------------|---|-------------------------0-------------------------------------------------------------------------------|
 ---------------------------------------|-x3|-------------------------0---------/---------------------------------------------------------------------|
 -------1p0---1p0---1p0-5--7--8--7--5--7|---|-2-------1p0---1p0---1p0---------5b(1/2)---5----7--7-7-7---1p0---1p0---5--5--7--8--7--5--7---2---2--2---2|
 -0-0-0-----3-----3-----3--5--6--5--3--5|---|-0-0-0-0-----3-----3-------0-0-0---------0----0----------------x-----x-3--3--5--6--5--3--5---0---0--0---0|

verse: (listen the song to get the timing and rhythym)
FIG.1:
 
 E5-----------------F5-E5-----------------A5-E5-----------------fill-E5------------F5-E5--------------A5-E5------------fill 

I like to dominate and I create your fate. So many years gone by. I rule society and you cannot be me, I am the master.
 
 E5---------------G5-E5---------------G5-E5-------fill-E5------------G5-E5--------------------G5-

Can't you hear me, breathing for you, do not ignore. Reach out to me, put your knife through me.
 
 fill:E-3-5b(1/2)-5--3--3--5--6-
 E5------------------fill END OF FIG.1

Watch me bleed for you.
1st time:
yeah right
 
 ------------------------------------------------------------------------------------------|
 ------------------------------------------------------------------------------------------|
 ------------------------------------------------------------------------------------------|
 -----0h2p0-------2/2--0/0--2/2---0h2p0---0h2p0--------------------8--7--5--7--------------|
 -2--------2p1----0/0-------0/0---2-----1-------2p1--0---0---5--7--------------2----2-2---2|
 -0--------------------3/3--------0--------------------3-----3--5--6--5--3--5--0----0-0---0|

2nd time:
[E5]Dy - ing Dy - ing All I could bleed
 
 --------------------------------------------------------------------------|
 --------------------------------------------------------------------------|
 --------------------------------------------------------------------------|
 --------------------------------------------------------------------------|
 -5h7p5---5h7-----7-5-7--5h7p5---5h7------7-----7---5--7--8---7------5---7-|
 -------6-----0-6-5-3-5--------6-----0-6--5--3--5---3--5--6---5b(1)--3---5-|

interlude:
E5 play 3 times
 
 -------------------------------------------------------|--------------------------------------|
 -------------------------------------------------------|--------------------------------------|
 -------------------------------------------------------|.-7---x--7h9--7--9---7--x--7h9--7--9-.|
 --------------------------a.h.--a.h.-----a.h.--a.h.----|.-7---x--7h9--7--9---7--x--7h9--7--9-.|
 -5---5h7---7--5---5h7---7--5----5h7---7--5-----5h7----7|--------------------------------------|
 ---x-----0------x-----0-------x-----0--------x------0--|--------------------------------------|
 --------------------------------------------|
 --------------------------------------------|
 -7--x---7h9--7--9--7---x--x--x--10--10--10--|
 -7--x---7h9--7--9--7---x--x--x--10--10--10--|
 -5--x---5h7--5--7--5---x--x--x--8---8---8---|
 --------------------------------------------|

Don't you understand, [E5] [G5]grab life by the hand
 
 --------------------------------------------------------------------------------------------------------------|
 ---------------------------------------------------------------12---------------------------------------------|
 -(10)-------------------------------------------------------------12---------7--x--7h9--7--9---7--x--7h9--7--9|
 -(10)----------------7-------------a.h.---------9sl/12-----------------12----7--x--7h9--7--9---7--x--7h9--7--9|
 -(8-)----------------5----5h7---7--5------5h7---7sl/12--------------------------------------------------------|
 ------------------------x-----0--------x------0---------------------------------------------------------------|

[F5]Where's democracy? [E5] [Dsus] [(E5)] [G5]I gave all I could bleed
 
 -------------------------------------------------------------------------|
 -------------------------------------------------------------------------|
 10---x\--x\----------------------harm------------12--12-12-12--12---12---|
 10--------------0sl/9-------------5--------------12--12-12-12--12---12---|
 8---------------0sl/7----5h7---7--5-----5h7---7--10--10-10-10--10---10---|
 -----------------------x-----0--------x-----0----------------------------|

solo1: (Eric Peterson)
E5 F5 E5 A5 E5 trem. bar
 
 ---------------------------------------------------------------------------------------------------------------------|
 ----/-------/---\-------------5-------|\--------------------------------3---/----------------------------------------|
 --2b(1/2)-2b(1)--(2)p0--4-------0--2--2-(2)p0-2--(2)p0--2-p-0--2sl/4-4-----4(1-1/2)--2--2b(1/4)-2b(1/4)-2--2--(2)p0--|
 --------------------------------------------------------------------------------------------------------------------2|
 ---------------------------------------------------------------------------------------------------------------------|
 ---------------------------------------------------------------------------------------------------------------------|

[E5] [F5] [E5] [A5] [Em7] [E5]  
 
 ---(1/2)----------------------------/(1/2)--/(1/2)--/(1/2)------------/(1/4)\------/(1/2)\-----------(1)--(1)--(1)--(1)--(1)|
 ---/--------------------/\--------14/-----14/-----14/---------------14/-----\14--14/-----\14--12--12/---14/--15/--15/--15/--|
 -14-----12--14----12--14--12------14------14------14------12-14--12-14-------14--14-------14--12--14b---16b--17b--17b--17b--|
 -----------------------------14---------------------------------------------------------------------------------------------|
 ----------------------------------------------------------------------------------------------------------------------------|
 ----------------------------------------------------------------------------------------------------------------------------|

solo2: (James Murphy)
/ \ / G5 E5 G5 E5 G5
 
 -22(1)--(22)--22(1)-----19h22p19---19-------------------------------------------------------------------------------------------------------------------------------------------|
 ---------------------------------22---22-20-22p20-------------------------------------------------------------------------------------------------------------------------------|
 ---------------------------------------------------21---17---21-19-17-21-19-17-19-17-16-19-17-16-17-16-14---------------------------------------------------------------------16|
 ----------------------------------------------------------------------------------------------------------17-16-14-17-16-14-17p16p14h16p14---14--------------14-16-17-14-16-17--|
 -------------------------------------------------------------------------------------------------------------------------------------------17--17-15-14-15-17-------------------|
 --------------------------------------------------------------------------------------------------------------------------------------------------------------------------------|

solo3: (Eric Peterson)
E5 G5 E5 t t t t G5 E5 G5
 
 12h15p12--12h15p12--12h15p12--12------12h15p12h15p12h15-18-15p12-18-12h15p12-18-12h15p12-18-15p12----/(1)\/\/-----------------|
 --------15--------15--------15--12-15--------------------------------------------------------------15----------/(1)\/---/(1)\/|
 -------------------------------------------------------------------------------------------------------------14-------14------|
 ------------------------------------------------------------------------------------------------------------------------------|
 ------------------------------------------------------------------------------------------------------------------------------|
 ------------------------------------------------------------------------------------------------------------------------------|

[E5]  
[/]  
 
 --------/------------/---------------|------------------------|
 --------/------------/---14--15---17-|------------------------|
 ----12--/---12--14--15----/---/------|------------------------|
 -14----14-----------------/---/------|------------------------|
 --------------------------/---/------|------------------------|
 -------------------------------------|------------5----3----5-|

| |
 
 --------------------------------------------------------------|
 --------------------------------------------------------------|
 --------------------------------------------------------------|
 --------------------------------------0h2p0------2/2--0/0--2/2|
 ----------------------------------2---------2p1--0/0-------0/0|
 ----------------------------------0-------------------3/3-----|

solo4: (James Murphy)
[E5] [A#5] [A5] [G5] [A5] [Em7] [A#5] [A5] [G5] [A5] [G5] [A5] [A#5] [A5] [G5] [A5] [E5]  
 
 ---------------------------------------------------------------/(1/2)-/(1/4)--------------12h14h15p14p12-------------------------------------------------|
 --------------------------------------------------------8-10-10------8------------12h13h15---------------15-14-12-15-14-12-------------------------------|
 ------------------------/(1/2)-/(1/2)---7h9p7---7h9p7-----------------------9----------------------------------------------15-14-12-15-14-12-15p14p12--15|
 -----------------5-7---7------5---------------9-------9--------------------------------------------------------------------------------------------------|
 -5h7p5---5h7p5----------------------7--------------------------------------------------------------------------------------------------------------------|
 -------7-------7-----------------------------------------------------------------------------------------------------------------------------------------|

verse 3:
 
 E5---------------------F5---E5---------------A5-E5-----------fill--------E5------------F5--E5------D5----------E5-------------------

Fuck gov'ment policy, this land is of the free, don't take away. Your two bit society is dying for your greed, now watch them bleed.
 
 B-semi harm---------
 G-4-----------------

Outro: Yeah All I could bleed All I could bleed
 
 --------------------|------------------------|---------------------|-----------------------------------------------------------------------------------------------|
 --------------------|------------------------|---------------------|-----------------------------------------------------------------------------------------------|
 10--9--7--7--9---10-|------------------------|---------------------|-0-----------------------0---------semi-harm---------------------------------------------------|
 --------------------|-------5sl/14--14sl\5--5|x3-------------------|-0-----------------------0---2------/(1/2)---------a.h-----------------------------------------|
 8---7--5--5--7---8--|--2---------------------|----5--7--8--7--5--7-|-----2---1p0---1p0---1p0-----2--2--5--------5---7--7-7-7----1p0---1p0---1p0-5--7--8--7--5--7---|
 --------------------|--0----3sl/12--12sl\3--3|----3--5--6--5--3--5-|---0-0-0-----3-----3-------0----0---------0---0-----------0-----3-----3-----3--5--6--5--3--5---|

play the Main riff once again and then:
All I could bleed
 
 --------------------------------------------------------------------------------------------------------|
 -------------------------------------------------------------------------------------------------------8|
 -7---9--9sl/10---9---7----x---12---14--15--14---12--9--------------------------------------------------7|
 --------------------------x----------------------------------------------------------------------------6|
 -5---7--7sl/8----7---5----x---10---12--13--12---10--7-----2-----2-2----2--2--2--2--2--2-2-2-2-2-2-2-2--7|
 ----------------------------------------------------------0-----0-0----0--0--0--0--0--0-0-0-0-0-0-0-0--0|


Important: The song above is NOT stored on the Chordie server. The original song is hosted at www.xguitar.com. Chordie works as a search engine and provides on-the-fly formatting. Chordie does not index songs against artists'/composers' will. To remove this song please click here.

Text color:
Chord color:
Chord grids: 
Font size:    
Page size: 

A#5 A5 D5 Dsus E5 Em7 F5 G5
Rate #1 of 4 versions

Login - add to songbook

SHARE PAGE  




You need to log in to post comments