Guitar Tabs, Chords and Lyrics
Major upgrade!! After one year development the new version of Chordie is now online! Please give feedback.


Deadline   Testament

 
 |------------------14----------|--14------------------14--------14---------|--14--------14------------------|
 |--17-------------------17-----|------17----(17)--17------17---------17----|------17--------17-14-----------|
 |------------------------------|-------------------------------------------|-----------------------17--16---|
 |------------------------------|-------------------------------------------|--------------------------------|
 |------------------------------|-------------------------------------------|--------------------------------|
 |------------------------------|-------------------------------------------|--------------------------------|

 


 


 b+1½ b+1 /+1\ /+1\


 ~~~ ~~~~


 

 
 |------------------------------------|--------------------------------------|---------------------|----------------------|
 |------------------------------------|--------------------------------------|---------------------|------11--------------|
 |----14------------------------------|--------------------------------------|---------------------|-9-11----11----9----9-|
 |----------16--14--------------------|--------------------------------------|------------7--9/11--|-----------------11---|
 |-------------------16--15-14-12-----|--12h14--12---(12)--(12)-----12h14(X)-|-12---7--9-----------|----------------------|
 |--------------------------------14--|--------------------------14----------|---------------------|----------------------|

 


 


 ~~~~~~~ ub


 [ub] [ub] [ub] [ub] [ub]  

 
 |----------------------------|--9---9---9--11--11--11--12--12--|--12--14---14-----14---14----14----14---|
 |----------------------------|-10--10--10--12--12--12--14--14--|--14--17---17-----17---17----17----17---|
 |--(9)h11---11--11--(11)-----|---------------------------------|----------------------------------------|
 |----------------------------|---------------------------------|----------------------------------------|
 |----------------------------|---------------------------------|----------------------------------------|
 |----------------------------|---------------------------------|----------------------------------------|
 |--14---(14)---14---14---14------14\12--|--12\11---11\9----9---------9--|--11p9----11-12p9----14p9----9-12p9----9--|
 |--17---(17)---17---17---17\16---16\14--|--14\12---12\10---10-----------|-------11---------10------10--------10----|
 |---------------------------------------|-----------------------11------|------------------------------------------|
 |---------------------------------------|-------------------------------|------------------------------------------|
 |---------------------------------------|-------------------------------|------------------------------------------|
 |---------------------------------------|-------------------------------|------------------------------------------|

 


 


 b+2 r


 \-2/ \-2/ \-2/


 

 
 |--11p9-----9--12p9----9--14/-(17)---|--17---17----14---------------------|----------------------------------------|
 |-------11----------10---------------|-----------------17-14--------------|---14--------(14)---(14)---(14)---(14)--|
 |------------------------------------|------------------------16--14------|---14--------(14)---(14)---(14)---(14)--|
 |------------------------------------|--------------------------------16--|---14--------(14)---(14)---(14)---(14)--|
 |------------------------------------|------------------------------------|----------------------------------------|
 |------------------------------------|------------------------------------|----------------------------------------|
 |-----------------------|----------------------------|-------------------------|------------------9h11h12p11p9----------|
 |-----------------------|----------------------------|-------------------------|--------9h10h12----------------12p10p9\-|
 |---------2--------5----|---7/9--9/11--11/13--13/14--|--14\13--13\11--11-------|--9h11----------------------------------|
 |---------2----2---5----|----------------------------|-------------------------|----------------------------------------|
 |---------0----2---3----|----------------------------|-------------------------|----------------------------------------|
 |-----X--------0--------|----------------------------|-------------------------|----------------------------------------|
 |----------------------------|------------------------|------------------------|
 |-\7---5h7-------------------|-10\9---9\6--6\5--5\3---|--3\1---3---3--4--------|
 |-----------------------/11--|------------------------|------------------------|
 |----------------------------|------------------------|------------------------|
 |----------------------------|------------------------|------------------------|
 |----------------------------|------------------------|------------------------|
 |-----------------8h10h11p10p8--------------------------|---------------------------------------------------|
 |--------8h10h11----------------11p10p8h11p10p8---------|---------------------------------------------------|
 |--8h10-----------------------------------------10p8p7--|--12p10p9--12p10p9------------------7h8h10p8p7\5---|
 |-------------------------------------------------------|--------------------10p8p7--7h8h10-----------------|
 |-------------------------------------------------------|---------------------------------------------------|
 |-------------------------------------------------------|---------------------------------------------------|
 |-----------------------------------|----------------------------------|------------------------------------------|
 |-----------------------------------|----------------------------------|---------------------------------(14)-----|
 |---7\4----2------------------------|----------------------------------|-------------------14--------16---14------|
 |--------------4-----(4)p2-------2--|--(2)/4---4-----------------------|--14-------16--14------14-14------14------|
 |----------------------------4------|--------------------------16--14--|-------16---------------------------------|
 |-----------------------------------|----------------------14----------|------------------------------------------|

 


 


 b+1 ~~~~ b+1~~ b+1


 [b+1]  

 
 |----------------------------14---------|--------14--------14----------------|---------------------------------------|
 |--(14)-(14)-(14)-(14)-(14)-------17----|--(17)------17--------17p14---------|---------------------------------------|
 |---14---14---14---14---14--------------|-----------------------------17-16--|--14-----------------------------------|
 |---14---14---14---14---14--------------|------------------------------------|---------16----14----------------------|
 |---------------------------------------|------------------------------------|----------------------16-15-14-12------|
 |---------------------------------------|------------------------------------|----------------------------------14---|
 |-------------------12-------(12)--------(12)-----(12)-----(12)---|--------------------------------------------------|
 |-----------------------------------------------------------------|-----2--------------4---------2-------------------|
 |-----------------------------------------------------------------|-----2--------------4---------2-------------------|
 |-----------------------------------------------------------------|-----2------h(4)----4---------2-------------------|
 |--12------14-----------------------------------------------------|------------h(4)----------------------------------|
 |-----------------------------------------------------------------|--------------------------------------------------|


Important: The song above is NOT stored on the Chordie server. The original song is hosted at www.xguitar.com. Chordie works as a search engine and provides on-the-fly formatting. Chordie does not index songs against artists'/composers' will. To remove this song please click here.

This song is displayed as text-only. Transposing and tuning is only available for chordpro-songs.
Rate #1 of 2 versions

Jango Player

Login - add to songbook

SHARE PAGE  



You need to log in to post comments